999
dxflib 2.2.0.0
  0
SECTION
  2
HEADER
  9
$ACADVER
  1
AC1015
  9
$HANDSEED
  5
FFFF
  9
$SPLINESEGS
 70
8
  9
$DIMEXE
 40
1.25
  9
$PSVPSCALE
 40
0.2
  9
$DIMLUNIT
 70
2
  9
$GRIDMODE
 70
1
  9
$INSUNITS
 70
4
  9
$DIMADEC
 70
2
  9
$DIMASZ
 40
8.0
  9
$DIMGAP
 40
5.0
  9
$DIMTXT
 40
20.0
  9
$GRIDUNIT
 10
0.0
 20
0.0
  9
$DIMEXO
 40
4.0
  9
$LUPREC
 70
4
  9
$PINSBASE
 10
1288.8558270441551485
 20
-399.4333475131367663
 30
0.0
  9
$DIMAUNIT
 70
0
  9
$AUPREC
 70
2
  9
$PLIMMIN
 10
0.0
 20
0.0
  9
$LUNITS
 70
2
  9
$PLIMMAX
 10
210.0
 20
297.0
  9
$DIMSTYLE
  2
Standard
  9
$AUNITS
 70
0
  0
ENDSEC
  0
SECTION
  2
TABLES
  0
TABLE
  2
VPORT
  5
8
100
AcDbSymbolTable
 70
1
  0
VPORT
  5
30
100
AcDbSymbolTableRecord
100
AcDbViewportTableRecord
  2
*Active
 70
0
 10
0.0
 20
0.0
 11
1.0
 21
1.0
 12
286.3055555555554861
 22
148.5
 13
0.0
 23
0.0
 14
10.0
 24
10.0
 15
10.0
 25
10.0
 16
0.0
 26
0.0
 36
1.0
 17
0.0
 27
0.0
 37
0.0
 40
297.0
 41
1.92798353909465
 42
50.0
 43
0.0
 44
0.0
 50
0.0
 51
0.0
 71
0
 72
100
 73
1
 74
3
 75
1
 76
1
 77
0
 78
0
281
0
 65
1
110
0.0
120
0.0
130
0.0
111
1.0
121
0.0
131
0.0
112
0.0
122
1.0
132
0.0
 79
0
146
0.0
  0
ENDTAB
  0
TABLE
  2
LTYPE
  5
5
100
AcDbSymbolTable
 70
21
  0
LTYPE
  5
14
100
AcDbSymbolTableRecord
100
AcDbLinetypeTableRecord
  2
ByBlock
 70
0
  3

 72
65
 73
0
 40
0.0
  0
LTYPE
  5
15
100
AcDbSymbolTableRecord
100
AcDbLinetypeTableRecord
  2
ByLayer
 70
0
  3

 72
65
 73
0
 40
0.0
  0
LTYPE
  5
16
100
AcDbSymbolTableRecord
100
AcDbLinetypeTableRecord
  2
CONTINUOUS
 70
0
  3
Solid line
 72
65
 73
0
 40
0.0
  0
LTYPE
  5
31
100
AcDbSymbolTableRecord
100
AcDbLinetypeTableRecord
  2
DOT
 70
0
  3
Dot . . . . . . . . . . . . . . . . . . . . . .
 72
65
 73
2
 40
6.3499999999999996
 49
0.0
 74
0
 49
-6.3499999999999996
 74
0
  0
LTYPE
  5
32
100
AcDbSymbolTableRecord
100
AcDbLinetypeTableRecord
  2
DOT2
 70
0
  3
Dot (.5x) .....................................
 72
65
 73
2
 40
3.1749999999999998
 49
0.0
 74
0
 49
-3.1749999999999998
 74
0
  0
LTYPE
  5
33
100
AcDbSymbolTableRecord
100
AcDbLinetypeTableRecord
  2
DOTX2
 70
0
  3
Dot (2x) .  .  .  .  .  .  .  .  .  .  .  .  .
 72
65
 73
2
 40
12.6999999999999993
 49
0.0
 74
0
 49
-12.6999999999999993
 74
0
  0
LTYPE
  5
34
100
AcDbSymbolTableRecord
100
AcDbLinetypeTableRecord
  2
DASHED
 70
0
  3
Dashed __ __ __ __ __ __ __ __ __ __ __ __ __ _
 72
65
 73
2
 40
19.0500000000000007
 49
12.6999999999999993
 74
0
 49
-6.3499999999999996
 74
0
  0
LTYPE
  5
35
100
AcDbSymbolTableRecord
100
AcDbLinetypeTableRecord
  2
DASHED2
 70
0
  3
Dashed (.5x) _ _ _ _ _ _ _ _ _ _ _ _ _ _ _ _ _
 72
65
 73
2
 40
9.5250000000000004
 49
6.3499999999999996
 74
0
 49
-3.1749999999999998
 74
0
  0
LTYPE
  5
36
100
AcDbSymbolTableRecord
100
AcDbLinetypeTableRecord
  2
DASHEDX2
 70
0
  3
Dashed (2x) ____  ____  ____  ____  ____  ___
 72
65
 73
2
 40
38.1000000000000014
 49
25.3999999999999986
 74
0
 49
-12.6999999999999993
 74
0
  0
LTYPE
  5
37
100
AcDbSymbolTableRecord
100
AcDbLinetypeTableRecord
  2
DASHDOT
 70
0
  3
Dash dot __ . __ . __ . __ . __ . __ . __ . __
 72
65
 73
4
 40
25.3999999999999986
 49
12.6999999999999993
 74
0
 49
-6.3499999999999996
 74
0
 49
0.0
 74
0
 49
-6.3499999999999996
 74
0
  0
LTYPE
  5
38
100
AcDbSymbolTableRecord
100
AcDbLinetypeTableRecord
  2
DASHDOT2
 70
0
  3
Dash dot (.5x) _._._._._._._._._._._._._._._.
 72
65
 73
4
 40
12.6999999999999993
 49
6.3499999999999996
 74
0
 49
-3.1749999999999998
 74
0
 49
0.0
 74
0
 49
-3.1749999999999998
 74
0
  0
LTYPE
  5
39
100
AcDbSymbolTableRecord
100
AcDbLinetypeTableRecord
  2
DASHDOTX2
 70
0
  3
Dash dot (2x) ____  .  ____  .  ____  .  ___
 72
65
 73
4
 40
50.7999999999999972
 49
25.3999999999999986
 74
0
 49
-12.6999999999999993
 74
0
 49
0.0
 74
0
 49
-12.6999999999999993
 74
0
  0
LTYPE
  5
3A
100
AcDbSymbolTableRecord
100
AcDbLinetypeTableRecord
  2
DIVIDE
 70
0
  3
Divide ____ . . ____ . . ____ . . ____ . . ____
 72
65
 73
6
 40
31.75
 49
12.6999999999999993
 74
0
 49
-6.3499999999999996
 74
0
 49
0.0
 74
0
 49
-6.3499999999999996
 74
0
 49
0.0
 74
0
 49
-6.3499999999999996
 74
0
  0
LTYPE
  5
3B
100
AcDbSymbolTableRecord
100
AcDbLinetypeTableRecord
  2
DIVIDE2
 70
0
  3
Divide (.5x) __..__..__..__..__..__..__..__.._
 72
65
 73
6
 40
15.875
 49
6.3499999999999996
 74
0
 49
-3.1749999999999998
 74
0
 49
0.0
 74
0
 49
-3.1749999999999998
 74
0
 49
0.0
 74
0
 49
-3.1749999999999998
 74
0
  0
LTYPE
  5
3C
100
AcDbSymbolTableRecord
100
AcDbLinetypeTableRecord
  2
DIVIDEX2
 70
0
  3
Divide (2x) ________  .  .  ________  .  .  _
 72
65
 73
6
 40
63.5
 49
25.3999999999999986
 74
0
 49
-12.6999999999999993
 74
0
 49
0.0
 74
0
 49
-12.6999999999999993
 74
0
 49
0.0
 74
0
 49
-12.6999999999999993
 74
0
  0
LTYPE
  5
3D
100
AcDbSymbolTableRecord
100
AcDbLinetypeTableRecord
  2
CENTER
 70
0
  3
Center ____ _ ____ _ ____ _ ____ _ ____ _ ____
 72
65
 73
4
 40
50.7999999999999972
 49
31.75
 74
0
 49
-6.3499999999999996
 74
0
 49
6.3499999999999996
 74
0
 49
-6.3499999999999996
 74
0
  0
LTYPE
  5
3E
100
AcDbSymbolTableRecord
100
AcDbLinetypeTableRecord
  2
CENTER2
 70
0
  3
Center (.5x) ___ _ ___ _ ___ _ ___ _ ___ _ ___
 72
65
 73
4
 40
28.5749999999999993
 49
19.0500000000000007
 74
0
 49
-3.1749999999999998
 74
0
 49
3.1749999999999998
 74
0
 49
-3.1749999999999998
 74
0
  0
LTYPE
  5
3F
100
AcDbSymbolTableRecord
100
AcDbLinetypeTableRecord
  2
CENTERX2
 70
0
  3
Center (2x) ________  __  ________  __  _____
 72
65
 73
4
 40
101.5999999999999943
 49
63.5
 74
0
 49
-12.6999999999999993
 74
0
 49
12.6999999999999993
 74
0
 49
-12.6999999999999993
 74
0
  0
LTYPE
  5
40
100
AcDbSymbolTableRecord
100
AcDbLinetypeTableRecord
  2
BORDER
 70
0
  3
Border __ __ . __ __ . __ __ . __ __ . __ __ .
 72
65
 73
6
 40
44.4500000000000028
 49
12.6999999999999993
 74
0
 49
-6.3499999999999996
 74
0
 49
12.6999999999999993
 74
0
 49
-6.3499999999999996
 74
0
 49
0.0
 74
0
 49
-6.3499999999999996
 74
0
  0
LTYPE
  5
41
100
AcDbSymbolTableRecord
100
AcDbLinetypeTableRecord
  2
BORDER2
 70
0
  3
Border (.5x) __.__.__.__.__.__.__.__.__.__.__.
 72
65
 73
6
 40
22.2250000000000014
 49
6.3499999999999996
 74
0
 49
-3.1749999999999998
 74
0
 49
6.3499999999999996
 74
0
 49
-3.1749999999999998
 74
0
 49
0.0
 74
0
 49
-3.1749999999999998
 74
0
  0
LTYPE
  5
42
100
AcDbSymbolTableRecord
100
AcDbLinetypeTableRecord
  2
BORDERX2
 70
0
  3
Border (2x) ____  ____  .  ____  ____  .  ___
 72
65
 73
6
 40
88.9000000000000057
 49
25.3999999999999986
 74
0
 49
-12.6999999999999993
 74
0
 49
25.3999999999999986
 74
0
 49
-12.6999999999999993
 74
0
 49
0.0
 74
0
 49
-12.6999999999999993
 74
0
  0
ENDTAB
  0
TABLE
  2
LAYER
  5
2
100
AcDbSymbolTable
 70
3
  0
LAYER
  5
10
100
AcDbSymbolTableRecord
100
AcDbLayerTableRecord
  2
0
 70
0
 62
3
  6
CONTINUOUS
370
0
390
F
  0
LAYER
  5
43
100
AcDbSymbolTableRecord
100
AcDbLayerTableRecord
  2
Ofen
 70
0
 62
7
  6
CONTINUOUS
370
50
390
F
  0
LAYER
  5
44
100
AcDbSymbolTableRecord
100
AcDbLayerTableRecord
  2
Steine
 70
0
 62
7
  6
CONTINUOUS
370
100
390
F
  0
ENDTAB
  0
TABLE
  2
STYLE
  5
3
100
AcDbSymbolTable
 70
1
  0
STYLE
  5
11
100
AcDbSymbolTableRecord
100
AcDbTextStyleTableRecord
  2
Standard
 70
0
 40
0.0
 41
0.75
 50
0.0
 71
0
 42
2.5
  3
txt
  4

  0
ENDTAB
  0
TABLE
  2
VIEW
  5
6
100
AcDbSymbolTable
 70
0
  0
ENDTAB
  0
TABLE
  2
UCS
  5
7
100
AcDbSymbolTable
 70
0
  0
ENDTAB
  0
TABLE
  2
APPID
  5
9
100
AcDbSymbolTable
 70
1
  0
APPID
  5
12
100
AcDbSymbolTableRecord
100
AcDbRegAppTableRecord
  2
ACAD
 70
0
  0
ENDTAB
  0
TABLE
  2
DIMSTYLE
  5
A
100
AcDbSymbolTable
 70
1
100
AcDbDimStyleTable
 71
0
  0
DIMSTYLE
105
27
100
AcDbSymbolTableRecord
100
AcDbDimStyleTableRecord
  2
Standard
 41
8.0
 42
4.0
 43
3.75
 44
1.25
 70
0
 73
0
 74
0
 77
1
 78
8
140
20.0
141
2.5
143
0.03937007874016
147
5.0
171
3
172
1
271
2
272
2
274
3
278
44
283
0
284
8
340
11
  0
ENDTAB
  0
TABLE
  2
BLOCK_RECORD
  5
1
100
AcDbSymbolTable
 70
1
  0
BLOCK_RECORD
  5
1F
100
AcDbSymbolTableRecord
100
AcDbBlockTableRecord
  2
*Model_Space
340
22
  0
BLOCK_RECORD
  5
1B
100
AcDbSymbolTableRecord
100
AcDbBlockTableRecord
  2
*Paper_Space
340
1E
  0
BLOCK_RECORD
  5
23
100
AcDbSymbolTableRecord
100
AcDbBlockTableRecord
  2
*Paper_Space0
340
26
  0
ENDTAB
  0
ENDSEC
  0
SECTION
  2
BLOCKS
  0
BLOCK
  5
20
100
AcDbEntity
  8
0
100
AcDbBlockBegin
  2
*Model_Space
 70
0
 10
0.0
 20
0.0
 30
0.0
  3
*Model_Space
  1

  0
ENDBLK
  5
21
100
AcDbEntity
  8
0
100
AcDbBlockEnd
  0
BLOCK
  5
1C
100
AcDbEntity
 67
1
  8
0
100
AcDbBlockBegin
  2
*Paper_Space
 70
0
 10
0.0
 20
0.0
 30
0.0
  3
*Paper_Space
  1

  0
ENDBLK
  5
1D
100
AcDbEntity
 67
1
  8
0
100
AcDbBlockEnd
  0
BLOCK
  5
24
100
AcDbEntity
  8
0
100
AcDbBlockBegin
  2
*Paper_Space0
 70
0
 10
0.0
 20
0.0
 30
0.0
  3
*Paper_Space0
  1

  0
ENDBLK
  5
25
100
AcDbEntity
  8
0
100
AcDbBlockEnd
  0
ENDSEC
  0
SECTION
  2
ENTITIES
  0
ARC
  5
45
100
AcDbEntity
  8
Ofen
 62
256
370
50
  6
ByLayer
100
AcDbCircle
 10
-988.3296538894671812
 20
3143.0
 30
0.0
 40
69.5499999999999687
100
AcDbArc
 50
224.9999999999999432
 51
134.9999999999999432
  0
ARC
  5
46
100
AcDbEntity
  8
Ofen
 62
256
370
50
  6
ByLayer
100
AcDbCircle
 10
-988.3296538894671812
 20
3143.0
 30
0.0
 40
158.4499999999999886
100
AcDbArc
 50
225.0
 51
134.9999999999999432
  0
LINE
  5
47
100
AcDbEntity
100
AcDbLine
  8
Ofen
 62
256
370
50
  6
ByLayer
 10
-1194.0
 20
3279.5
 30
0.0
 11
-1068.7917723055268198
 21
3279.5
 31
0.0
  0
LINE
  5
48
100
AcDbEntity
100
AcDbLine
  8
Ofen
 62
256
370
50
  6
ByLayer
 10
-1194.0
 20
3006.5
 30
0.0
 11
-1068.7917723055265924
 21
3006.5
 31
0.0
  0
CIRCLE
  5
49
100
AcDbEntity
100
AcDbCircle
  8
Ofen
 62
256
370
-1
  6
ByLayer
 10
-1149.5499999999999545
 20
3143.2671098973296466
 30
0.0
 40
0.0
  0
CIRCLE
  5
4A
100
AcDbEntity
100
AcDbCircle
  8
Ofen
 62
256
370
-1
  6
ByLayer
 10
-1149.5499999999999545
 20
3143.2671098973296466
 30
0.0
 40
0.0
  0
CIRCLE
  5
4B
100
AcDbEntity
100
AcDbCircle
  8
Ofen
 62
256
370
-1
  6
ByLayer
 10
-1149.5499999999999545
 20
3143.2671098973296466
 30
0.0
 40
0.0
  0
CIRCLE
  5
4C
100
AcDbEntity
100
AcDbCircle
  8
Ofen
 62
256
370
-1
  6
ByLayer
 10
-1194.0
 20
3143.0
 30
0.0
 40
0.0
  0
CIRCLE
  5
4D
100
AcDbEntity
100
AcDbCircle
  8
Ofen
 62
256
370
-1
  6
ByLayer
 10
-1194.0
 20
3143.0
 30
0.0
 40
0.0
  0
CIRCLE
  5
4E
100
AcDbEntity
100
AcDbCircle
  8
Ofen
 62
256
370
-1
  6
ByLayer
 10
-1194.0
 20
3143.0
 30
0.0
 40
0.0
  0
CIRCLE
  5
4F
100
AcDbEntity
100
AcDbCircle
  8
Ofen
 62
256
370
-1
  6
ByLayer
 10
-1194.0
 20
3143.0
 30
0.0
 40
0.0
  0
LINE
  5
50
100
AcDbEntity
100
AcDbLine
  8
Ofen
 62
256
370
-1
  6
ByLayer
 10
-1037.5089305209914983
 20
3192.1792766315243171
 30
0.0
 11
-1100.3707233684756375
 21
3255.0410694790084563
 31
0.0
  0
LINE
  5
51
100
AcDbEntity
100
AcDbLine
  8
Ofen
 62
256
370
-1
  6
ByLayer
 10
-939.1503772579428642
 20
3192.1792766315243171
 30
0.0
 11
-876.288584410458725
 21
3255.0410694790084563
 31
0.0
  0
LINE
  5
52
100
AcDbEntity
100
AcDbLine
  8
Ofen
 62
256
370
-1
  6
ByLayer
 10
-939.1503772579427505
 20
3093.8207233684756829
 30
0.0
 11
-876.288584410458725
 21
3030.9589305209915437
 31
0.0
  0
LINE
  5
53
100
AcDbEntity
100
AcDbLine
  8
Ofen
 62
256
370
-1
  6
ByLayer
 10
-1037.5089305209914983
 20
3093.8207233684756829
 30
0.0
 11
-1100.3707233684756375
 21
3030.9589305209915437
 31
0.0
  0
ELLIPSE
  5
54
100
AcDbEntity
100
AcDbEllipse
  8
Ofen
 62
256
370
-1
  6
ByLayer
 10
-685.0
 20
3143.0
 30
0.0
 11
-25.0
 21
0.0
 31
0.0
 40
6.0
 41
0.0
 42
6.2831853071795862
  0
LINE
  5
55
100
AcDbEntity
100
AcDbLine
  8
Ofen
 62
256
370
50
  6
ByLayer
 10
-907.8675354734075427
 20
3006.5
 30
0.0
 11
-715.3652062208132065
 21
3006.5
 31
0.0
  0
LINE
  5
56
100
AcDbEntity
100
AcDbLine
  8
Ofen
 62
256
370
-1
  6
ByLayer
 10
-705.0
 20
3293.0
 30
0.0
 11
-685.0
 21
3293.0
 31
0.0
  0
LINE
  5
57
100
AcDbEntity
100
AcDbLine
  8
Ofen
 62
256
370
-1
  6
ByLayer
 10
-705.0
 20
2993.0
 30
0.0
 11
-685.0
 21
2993.0
 31
0.0
  0
LINE
  5
58
100
AcDbEntity
100
AcDbLine
  8
Ofen
 62
256
370
50
  6
ByLayer
 10
-907.8675354734075427
 20
3279.5
 30
0.0
 11
-715.3652062208133202
 21
3279.5
 31
0.0
  0
LINE
  5
59
100
AcDbEntity
100
AcDbLine
  8
Ofen
 62
256
370
-1
  6
ByLayer
 10
-907.8675354734075427
 20
3279.5
 30
0.0
 11
-715.3652062208134339
 21
3279.5
 31
0.0
  0
ELLIPSE
  5
5A
100
AcDbEntity
100
AcDbEllipse
  8
Ofen
 62
256
370
-1
  6
ByLayer
 10
-705.0
 20
3143.0
 30
0.0
 11
0.0
 21
150.0
 31
0.0
 40
0.1666666666666667
 41
0.0
 42
3.1415926535897931
  0
CIRCLE
  5
5B
100
AcDbEntity
100
AcDbCircle
  8
Ofen
 62
256
370
-1
  6
ByLayer
 10
-1007.4582089634940303
 20
3143.0
 30
0.0
 40
240.0
  0
CIRCLE
  5
5C
100
AcDbEntity
100
AcDbCircle
  8
Ofen
 62
256
370
-1
  6
ByLayer
 10
-1007.4582089634940303
 20
3143.0
 30
0.0
 40
236.0
  0
LINE
  5
5D
100
AcDbEntity
100
AcDbLine
  8
Ofen
 62
256
370
-1
  6
ByLayer
 10
-735.0
 20
3199.0
 30
0.0
 11
-720.0
 21
3199.0
 31
0.0
  0
ARC
  5
5E
100
AcDbEntity
  8
Ofen
 62
256
370
-1
  6
ByLayer
100
AcDbCircle
 10
-735.0
 20
3194.0
 30
0.0
 40
5.0
100
AcDbArc
 50
90.0
 51
180.0
  0
LINE
  5
5F
100
AcDbEntity
100
AcDbLine
  8
Ofen
 62
256
370
-1
  6
ByLayer
 10
-740.0
 20
3092.0
 30
0.0
 11
-740.0
 21
3194.0
 31
0.0
  0
LINE
  5
60
100
AcDbEntity
100
AcDbLine
  8
Ofen
 62
256
370
-1
  6
ByLayer
 10
-735.0
 20
3087.0
 30
0.0
 11
-720.0
 21
3087.0
 31
0.0
  0
ARC
  5
61
100
AcDbEntity
  8
Ofen
 62
256
370
-1
  6
ByLayer
100
AcDbCircle
 10
-735.0
 20
3092.0
 30
0.0
 40
5.0
100
AcDbArc
 50
180.0
 51
270.0
  0
LINE
  5
62
100
AcDbEntity
100
AcDbLine
  8
Ofen
 62
256
370
-1
  6
ByLayer
 10
-735.0
 20
3203.0
 30
0.0
 11
-720.0
 21
3203.0
 31
0.0
  0
ARC
  5
63
100
AcDbEntity
  8
Ofen
 62
256
370
-1
  6
ByLayer
100
AcDbCircle
 10
-735.0
 20
3194.0
 30
0.0
 40
9.0
100
AcDbArc
 50
90.0
 51
180.0
  0
LINE
  5
64
100
AcDbEntity
100
AcDbLine
  8
Ofen
 62
256
370
-1
  6
ByLayer
 10
-735.0
 20
3083.0
 30
0.0
 11
-720.0
 21
3083.0
 31
0.0
  0
LINE
  5
65
100
AcDbEntity
100
AcDbLine
  8
Ofen
 62
256
370
-1
  6
ByLayer
 10
-744.0
 20
3092.0
 30
0.0
 11
-744.0
 21
3194.0
 31
0.0
  0
ARC
  5
66
100
AcDbEntity
  8
Ofen
 62
256
370
-1
  6
ByLayer
100
AcDbCircle
 10
-735.0
 20
3092.0
 30
0.0
 40
9.0
100
AcDbArc
 50
180.0
 51
270.0
  0
LINE
  5
67
100
AcDbEntity
100
AcDbLine
  8
Ofen
 62
256
370
-1
  6
ByLayer
 10
-720.0
 20
3203.0
 30
0.0
 11
-720.0
 21
3199.0
 31
0.0
  0
LINE
  5
68
100
AcDbEntity
100
AcDbLine
  8
Ofen
 62
256
370
-1
  6
ByLayer
 10
-720.0
 20
3087.0
 30
0.0
 11
-720.0
 21
3083.0
 31
0.0
  0
LINE
  5
69
100
AcDbEntity
100
AcDbLine
  8
Ofen
 62
256
370
-1
  6
ByLayer
 10
-710.0
 20
3199.0
 30
0.0
 11
-710.0
 21
3087.0
 31
0.0
  0
LINE
  5
6A
100
AcDbEntity
100
AcDbLine
  8
Ofen
 62
256
370
-1
  6
ByLayer
 10
-730.0
 20
3199.0
 30
0.0
 11
-730.0
 21
3087.0
 31
0.0
  0
LINE
  5
6B
100
AcDbEntity
100
AcDbLine
  8
Ofen
 62
256
370
-1
  6
ByLayer
 10
-730.0
 20
3199.0
 30
0.0
 11
-710.0
 21
3199.0
 31
0.0
  0
LINE
  5
6C
100
AcDbEntity
100
AcDbLine
  8
Ofen
 62
256
370
-1
  6
ByLayer
 10
-730.0
 20
3087.0
 30
0.0
 11
-710.0
 21
3087.0
 31
0.0
  0
LINE
  5
6D
100
AcDbEntity
100
AcDbLine
  8
Ofen
 62
256
370
-1
  6
ByLayer
 10
-2594.0
 20
3308.0
 30
0.0
 11
-2594.0
 21
3192.3689757615961753
 31
0.0
  0
LINE
  5
6E
100
AcDbEntity
100
AcDbLine
  8
Ofen
 62
256
370
-1
  6
ByLayer
 10
-2594.0
 20
3094.165244033063118
 30
0.0
 11
-2594.0
 21
2978.0
 31
0.0
  0
ARC
  5
6F
100
AcDbEntity
  8
Ofen
 62
256
370
50
  6
ByLayer
100
AcDbCircle
 10
-2388.3296538894674086
 20
3143.0
 30
0.0
 40
69.5499999999999687
100
AcDbArc
 50
224.9999999999999432
 51
134.9999999999999432
  0
ARC
  5
70
100
AcDbEntity
  8
Ofen
 62
256
370
50
  6
ByLayer
100
AcDbCircle
 10
-2388.3296538894674086
 20
3143.0
 30
0.0
 40
158.4499999999999886
100
AcDbArc
 50
225.0
 51
134.9999999999999432
  0
LINE
  5
71
100
AcDbEntity
100
AcDbLine
  8
Ofen
 62
256
370
50
  6
ByLayer
 10
-2500.3707233684754101
 20
3255.0410694790084563
 30
0.0
 11
-2545.9117928474843211
 21
3209.5
 31
0.0
  0
LINE
  5
72
100
AcDbEntity
100
AcDbLine
  8
Ofen
 62
256
370
50
  6
ByLayer
 10
-2437.5089305209912709
 20
3093.8207233684756829
 30
0.0
 11
-2483.4119598770967059
 21
3139.7237527245811179
 31
0.0
  0
LINE
  5
73
100
AcDbEntity
100
AcDbLine
  8
Ofen
 62
256
370
50
  6
ByLayer
 10
-2500.3707233684754101
 20
3030.9589305209915437
 30
0.0
 11
-2546.5155601295482484
 21
3077.1037672820639273
 31
0.0
  0
CIRCLE
  5
74
100
AcDbEntity
100
AcDbCircle
  8
Ofen
 62
256
370
-1
  6
ByLayer
 10
-2549.5500000000001819
 20
3143.2671098973296466
 30
0.0
 40
0.0
  0
CIRCLE
  5
75
100
AcDbEntity
100
AcDbCircle
  8
Ofen
 62
256
370
-1
  6
ByLayer
 10
-2549.5500000000001819
 20
3143.2671098973296466
 30
0.0
 40
0.0
  0
CIRCLE
  5
76
100
AcDbEntity
100
AcDbCircle
  8
Ofen
 62
256
370
-1
  6
ByLayer
 10
-2549.5500000000001819
 20
3143.2671098973296466
 30
0.0
 40
0.0
  0
CIRCLE
  5
77
100
AcDbEntity
100
AcDbCircle
  8
Ofen
 62
256
370
-1
  6
ByLayer
 10
-2594.0
 20
3143.0
 30
0.0
 40
0.0
  0
CIRCLE
  5
78
100
AcDbEntity
100
AcDbCircle
  8
Ofen
 62
256
370
-1
  6
ByLayer
 10
-2594.0
 20
3143.0
 30
0.0
 40
0.0
  0
CIRCLE
  5
79
100
AcDbEntity
100
AcDbCircle
  8
Ofen
 62
256
370
-1
  6
ByLayer
 10
-2594.0
 20
3143.0
 30
0.0
 40
0.0
  0
CIRCLE
  5
7A
100
AcDbEntity
100
AcDbCircle
  8
Ofen
 62
256
370
-1
  6
ByLayer
 10
-2594.0
 20
3143.0
 30
0.0
 40
0.0
  0
LINE
  5
7B
100
AcDbEntity
100
AcDbLine
  8
Ofen
 62
256
370
-1
  6
ByLayer
 10
-2437.5089305209912709
 20
3192.1792766315243171
 30
0.0
 11
-2500.3707233684754101
 21
3255.0410694790084563
 31
0.0
  0
LINE
  5
7C
100
AcDbEntity
100
AcDbLine
  8
Ofen
 62
256
370
-1
  6
ByLayer
 10
-2339.1503772579426368
 20
3192.1792766315243171
 30
0.0
 11
-2276.2885844104584976
 21
3255.0410694790084563
 31
0.0
  0
LINE
  5
7D
100
AcDbEntity
100
AcDbLine
  8
Ofen
 62
256
370
-1
  6
ByLayer
 10
-2339.1503772579426368
 20
3093.8207233684756829
 30
0.0
 11
-2276.2885844104584976
 21
3030.9589305209915437
 31
0.0
  0
LINE
  5
7E
100
AcDbEntity
100
AcDbLine
  8
Ofen
 62
256
370
-1
  6
ByLayer
 10
-2437.5089305209912709
 20
3093.8207233684756829
 30
0.0
 11
-2500.3707233684754101
 21
3030.9589305209915437
 31
0.0
  0
LINE
  5
7F
100
AcDbEntity
100
AcDbLine
  8
Ofen
 62
256
370
-1
  6
ByLayer
 10
-2483.3866573847344625
 20
3146.3015497677811254
 30
0.0
 11
-2437.5089305209912709
 21
3192.1792766315243171
 31
0.0
  0
CIRCLE
  5
80
100
AcDbEntity
100
AcDbCircle
  8
Ofen
 62
256
370
-1
  6
ByLayer
 10
-2549.5500000000001819
 20
3143.0
 30
0.0
 40
63.3000000000001393
  0
CIRCLE
  5
81
100
AcDbEntity
100
AcDbCircle
  8
Ofen
 62
256
370
-1
  6
ByLayer
 10
-2549.5500000000001819
 20
3143.2671098973296466
 30
0.0
 40
66.2328901026704102
  0
ELLIPSE
  5
82
100
AcDbEntity
100
AcDbEllipse
  8
Ofen
 62
256
370
-1
  6
ByLayer
 10
-1985.0
 20
3143.0
 30
0.0
 11
-30.0
 21
0.0
 31
0.0
 40
6.0
 41
0.0
 42
6.2831853071795862
  0
LINE
  5
83
100
AcDbEntity
100
AcDbLine
  8
Ofen
 62
256
370
-1
  6
ByLayer
 10
-2009.0
 20
3323.0
 30
0.0
 11
-1985.0
 21
3323.0
 31
0.0
  0
LINE
  5
84
100
AcDbEntity
100
AcDbLine
  8
Ofen
 62
256
370
-1
  6
ByLayer
 10
-2009.0
 20
2963.0
 30
0.0
 11
-1985.0
 21
2963.0
 31
0.0
  0
ELLIPSE
  5
85
100
AcDbEntity
100
AcDbEllipse
  8
Ofen
 62
256
370
-1
  6
ByLayer
 10
-2009.0
 20
3143.0
 30
0.0
 11
0.0
 21
180.0
 31
0.0
 40
0.1666666666666667
 41
0.0
 42
3.1415926535897931
  0
LINE
  5
86
100
AcDbEntity
100
AcDbLine
  8
Ofen
 62
256
370
-1
  6
ByLayer
 10
-2594.0
 20
2978.0
 30
0.0
 11
-2020.9895788082817489
 21
2978.0
 31
0.0
  0
LINE
  5
87
100
AcDbEntity
100
AcDbLine
  8
Ofen
 62
256
370
-1
  6
ByLayer
 10
-2594.0
 20
3308.0
 30
0.0
 11
-2020.9895788082817489
 21
3308.0
 31
0.0
  0
CIRCLE
  5
88
100
AcDbEntity
100
AcDbCircle
  8
Ofen
 62
256
370
-1
  6
ByLayer
 10
-2365.981143409757351
 20
3143.0
 30
0.0
 40
300.0
  0
CIRCLE
  5
89
100
AcDbEntity
100
AcDbCircle
  8
Ofen
 62
256
370
-1
  6
ByLayer
 10
-2365.981143409757351
 20
3143.0
 30
0.0
 40
296.0
  0
LINE
  5
8A
100
AcDbEntity
100
AcDbLine
  8
Ofen
 62
256
370
-1
  6
ByLayer
 10
-2045.0
 20
3199.0
 30
0.0
 11
-2030.0
 21
3199.0
 31
0.0
  0
ARC
  5
8B
100
AcDbEntity
  8
Ofen
 62
256
370
-1
  6
ByLayer
100
AcDbCircle
 10
-2045.0
 20
3194.0
 30
0.0
 40
5.0
100
AcDbArc
 50
90.0
 51
180.0
  0
LINE
  5
8C
100
AcDbEntity
100
AcDbLine
  8
Ofen
 62
256
370
-1
  6
ByLayer
 10
-2050.0
 20
3092.0
 30
0.0
 11
-2050.0
 21
3194.0
 31
0.0
  0
LINE
  5
8D
100
AcDbEntity
100
AcDbLine
  8
Ofen
 62
256
370
-1
  6
ByLayer
 10
-2045.0
 20
3087.0
 30
0.0
 11
-2030.0
 21
3087.0
 31
0.0
  0
ARC
  5
8E
100
AcDbEntity
  8
Ofen
 62
256
370
-1
  6
ByLayer
100
AcDbCircle
 10
-2045.0
 20
3092.0
 30
0.0
 40
5.0
100
AcDbArc
 50
180.0
 51
270.0
  0
LINE
  5
8F
100
AcDbEntity
100
AcDbLine
  8
Ofen
 62
256
370
-1
  6
ByLayer
 10
-2045.0
 20
3203.0
 30
0.0
 11
-2030.0
 21
3203.0
 31
0.0
  0
ARC
  5
90
100
AcDbEntity
  8
Ofen
 62
256
370
-1
  6
ByLayer
100
AcDbCircle
 10
-2045.0
 20
3194.0
 30
0.0
 40
9.0
100
AcDbArc
 50
90.0
 51
180.0
  0
LINE
  5
91
100
AcDbEntity
100
AcDbLine
  8
Ofen
 62
256
370
-1
  6
ByLayer
 10
-2045.0
 20
3083.0
 30
0.0
 11
-2030.0
 21
3083.0
 31
0.0
  0
LINE
  5
92
100
AcDbEntity
100
AcDbLine
  8
Ofen
 62
256
370
-1
  6
ByLayer
 10
-2054.0
 20
3092.0
 30
0.0
 11
-2054.0
 21
3194.0
 31
0.0
  0
ARC
  5
93
100
AcDbEntity
  8
Ofen
 62
256
370
-1
  6
ByLayer
100
AcDbCircle
 10
-2045.0
 20
3092.0
 30
0.0
 40
9.0
100
AcDbArc
 50
180.0
 51
270.0
  0
LINE
  5
94
100
AcDbEntity
100
AcDbLine
  8
Ofen
 62
256
370
-1
  6
ByLayer
 10
-2030.0
 20
3203.0
 30
0.0
 11
-2030.0
 21
3199.0
 31
0.0
  0
LINE
  5
95
100
AcDbEntity
100
AcDbLine
  8
Ofen
 62
256
370
-1
  6
ByLayer
 10
-2030.0
 20
3087.0
 30
0.0
 11
-2030.0
 21
3083.0
 31
0.0
  0
LINE
  5
96
100
AcDbEntity
100
AcDbLine
  8
Ofen
 62
256
370
-1
  6
ByLayer
 10
-2020.0
 20
3199.0
 30
0.0
 11
-2020.0
 21
3087.0
 31
0.0
  0
LINE
  5
97
100
AcDbEntity
100
AcDbLine
  8
Ofen
 62
256
370
-1
  6
ByLayer
 10
-2040.0
 20
3199.0
 30
0.0
 11
-2040.0
 21
3087.0
 31
0.0
  0
LINE
  5
98
100
AcDbEntity
100
AcDbLine
  8
Ofen
 62
256
370
-1
  6
ByLayer
 10
-2040.0
 20
3199.0
 30
0.0
 11
-2020.0
 21
3199.0
 31
0.0
  0
LINE
  5
99
100
AcDbEntity
100
AcDbLine
  8
Ofen
 62
256
370
-1
  6
ByLayer
 10
-2040.0
 20
3087.0
 30
0.0
 11
-2020.0
 21
3087.0
 31
0.0
  0
CIRCLE
  5
9A
100
AcDbEntity
100
AcDbCircle
  8
Ofen
 62
256
370
-1
  6
ByLayer
 10
-1149.5499999999999545
 20
4143.0
 30
0.0
 40
41.2499999999999432
  0
ELLIPSE
  5
9B
100
AcDbEntity
100
AcDbEllipse
  8
Ofen
 62
256
370
-1
  6
ByLayer
 10
-685.0
 20
4143.0
 30
0.0
 11
-25.0
 21
0.0
 31
0.0
 40
6.0
 41
0.0
 42
6.2831853071795862
  0
LINE
  5
9C
100
AcDbEntity
100
AcDbLine
  8
Ofen
 62
256
370
-1
  6
ByLayer
 10
-705.0
 20
4293.0
 30
0.0
 11
-685.0
 21
4293.0
 31
0.0
  0
LINE
  5
9D
100
AcDbEntity
100
AcDbLine
  8
Ofen
 62
256
370
-1
  6
ByLayer
 10
-705.0
 20
3993.0
 30
0.0
 11
-685.0
 21
3993.0
 31
0.0
  0
ELLIPSE
  5
9E
100
AcDbEntity
100
AcDbEllipse
  8
Ofen
 62
256
370
-1
  6
ByLayer
 10
-705.0
 20
4143.0
 30
0.0
 11
0.0
 21
150.0
 31
0.0
 40
0.1666666666666667
 41
0.0
 42
3.1415926535897931
  0
CIRCLE
  5
9F
100
AcDbEntity
100
AcDbCircle
  8
Ofen
 62
256
370
-1
  6
ByLayer
 10
-1007.4582089634940303
 20
4143.0
 30
0.0
 40
240.0
  0
CIRCLE
  5
A0
100
AcDbEntity
100
AcDbCircle
  8
Ofen
 62
256
370
-1
  6
ByLayer
 10
-1007.4582089634940303
 20
4143.0
 30
0.0
 40
236.0
  0
LINE
  5
A1
100
AcDbEntity
100
AcDbLine
  8
Ofen
 62
256
370
-1
  6
ByLayer
 10
-735.0
 20
4199.0
 30
0.0
 11
-720.0
 21
4199.0
 31
0.0
  0
ARC
  5
A2
100
AcDbEntity
  8
Ofen
 62
256
370
-1
  6
ByLayer
100
AcDbCircle
 10
-735.0
 20
4194.0
 30
0.0
 40
5.0
100
AcDbArc
 50
90.0
 51
180.0
  0
LINE
  5
A3
100
AcDbEntity
100
AcDbLine
  8
Ofen
 62
256
370
-1
  6
ByLayer
 10
-740.0
 20
4092.0
 30
0.0
 11
-740.0
 21
4194.0
 31
0.0
  0
LINE
  5
A4
100
AcDbEntity
100
AcDbLine
  8
Ofen
 62
256
370
-1
  6
ByLayer
 10
-735.0
 20
4087.0
 30
0.0
 11
-720.0
 21
4087.0
 31
0.0
  0
ARC
  5
A5
100
AcDbEntity
  8
Ofen
 62
256
370
-1
  6
ByLayer
100
AcDbCircle
 10
-735.0
 20
4092.0
 30
0.0
 40
5.0
100
AcDbArc
 50
180.0
 51
270.0
  0
LINE
  5
A6
100
AcDbEntity
100
AcDbLine
  8
Ofen
 62
256
370
-1
  6
ByLayer
 10
-735.0
 20
4203.0
 30
0.0
 11
-720.0
 21
4203.0
 31
0.0
  0
ARC
  5
A7
100
AcDbEntity
  8
Ofen
 62
256
370
-1
  6
ByLayer
100
AcDbCircle
 10
-735.0
 20
4194.0
 30
0.0
 40
9.0
100
AcDbArc
 50
90.0
 51
180.0
  0
LINE
  5
A8
100
AcDbEntity
100
AcDbLine
  8
Ofen
 62
256
370
-1
  6
ByLayer
 10
-735.0
 20
4083.0
 30
0.0
 11
-720.0
 21
4083.0
 31
0.0
  0
LINE
  5
A9
100
AcDbEntity
100
AcDbLine
  8
Ofen
 62
256
370
-1
  6
ByLayer
 10
-744.0
 20
4092.0
 30
0.0
 11
-744.0
 21
4194.0
 31
0.0
  0
ARC
  5
AA
100
AcDbEntity
  8
Ofen
 62
256
370
-1
  6
ByLayer
100
AcDbCircle
 10
-735.0
 20
4092.0
 30
0.0
 40
9.0
100
AcDbArc
 50
180.0
 51
270.0
  0
LINE
  5
AB
100
AcDbEntity
100
AcDbLine
  8
Ofen
 62
256
370
-1
  6
ByLayer
 10
-720.0
 20
4203.0
 30
0.0
 11
-720.0
 21
4199.0
 31
0.0
  0
LINE
  5
AC
100
AcDbEntity
100
AcDbLine
  8
Ofen
 62
256
370
-1
  6
ByLayer
 10
-720.0
 20
4087.0
 30
0.0
 11
-720.0
 21
4083.0
 31
0.0
  0
LINE
  5
AD
100
AcDbEntity
100
AcDbLine
  8
Ofen
 62
256
370
-1
  6
ByLayer
 10
-710.0
 20
4199.0
 30
0.0
 11
-710.0
 21
4087.0
 31
0.0
  0
LINE
  5
AE
100
AcDbEntity
100
AcDbLine
  8
Ofen
 62
256
370
-1
  6
ByLayer
 10
-730.0
 20
4199.0
 30
0.0
 11
-730.0
 21
4087.0
 31
0.0
  0
LINE
  5
AF
100
AcDbEntity
100
AcDbLine
  8
Ofen
 62
256
370
-1
  6
ByLayer
 10
-730.0
 20
4199.0
 30
0.0
 11
-710.0
 21
4199.0
 31
0.0
  0
LINE
  5
B0
100
AcDbEntity
100
AcDbLine
  8
Ofen
 62
256
370
-1
  6
ByLayer
 10
-730.0
 20
4087.0
 30
0.0
 11
-710.0
 21
4087.0
 31
0.0
  0
LINE
  5
B1
100
AcDbEntity
100
AcDbLine
  8
Ofen
 62
256
370
50
  6
ByLayer
 10
-810.0557013806368332
 20
4279.5
 30
0.0
 11
-715.3652062208133202
 21
4279.5
 31
0.0
  0
LINE
  5
B2
100
AcDbEntity
100
AcDbLine
  8
Ofen
 62
256
370
-1
  6
ByLayer
 10
-810.0557013806368332
 20
4279.5
 30
0.0
 11
-715.3652062208134339
 21
4279.5
 31
0.0
  0
LINE
  5
B3
100
AcDbEntity
100
AcDbLine
  8
Ofen
 62
256
370
50
  6
ByLayer
 10
-810.0557013806368332
 20
4006.5
 30
0.0
 11
-715.3652062208132065
 21
4006.5
 31
0.0
  0
SPLINE
  5
B4
  8
Steine
 62
256
370
-1
  6
ByLayer
100
AcDbEntity
100
AcDbSpline
 70
8
 71
3
 72
13
 73
9
 74
0
 40
0.0
 40
0.0
 40
0.0
 40
0.0
 40
0.1666666666666667
 40
0.3333333333333333
 40
0.5
 40
0.6666666666666666
 40
0.8333333333333333
 40
1.0
 40
1.0
 40
1.0
 40
1.0
 10
-1149.7338086449594812
 20
4276.0551039718175161
 30
0.0
 10
-1071.6068097104075605
 20
4292.9474280657741474
 30
0.0
 10
-1106.4472281541941356
 20
4327.7878465095618594
 30
0.0
 10
-1106.4472281541941356
 20
4330.955157277177932
 30
0.0
 10
-1158.1799706919380242
 20
4323.5647654860713374
 30
0.0
 10
-1185.6299973446184595
 20
4294.0031983216467779
 30
0.0
 10
-1181.4069163211290743
 20
4276.0551039718175161
 30
0.0
 10
-1181.4069163211290743
 20
4276.0551039718175161
 30
0.0
 10
-1149.6087882570636793
 20
4276.0619634987560858
 30
0.0
  0
SPLINE
  5
B5
  8
Steine
 62
256
370
-1
  6
ByLayer
100
AcDbEntity
100
AcDbSpline
 70
8
 71
3
 72
13
 73
9
 74
0
 40
0.0
 40
0.0
 40
0.0
 40
0.0
 40
0.1666666666666667
 40
0.3333333333333333
 40
0.5
 40
0.6666666666666666
 40
0.8333333333333333
 40
1.0
 40
1.0
 40
1.0
 40
1.0
 10
-1109.2175693056331056
 20
4351.9776546121984211
 30
0.0
 10
-1101.1092537405336316
 20
4324.4093816908598455
 30
0.0
 10
-1095.703710030467164
 20
4288.7327932044208865
 30
0.0
 10
-1054.0810234629554998
 20
4327.6527079168990895
 30
0.0
 10
-1062.7298933990618934
 20
4344.4098934181056393
 30
0.0
 10
-1025.4316417996033124
 20
4338.4637953370329342
 30
0.0
 10
-1042.7293816718160997
 20
4376.8431556785035355
 30
0.0
 10
-1088.6765032073806196
 20
4363.3292964033380485
 30
0.0
 10
-1108.6770149346266408
 20
4354.13987209622519
 30
0.0
  0
SPLINE
  5
B6
  8
Steine
 62
256
370
-1
  6
ByLayer
100
AcDbEntity
100
AcDbSpline
 70
8
 71
3
 72
16
 73
12
 74
0
 40
0.0
 40
0.0
 40
0.0
 40
0.0
 40
0.1111111111111111
 40
0.2222222222222222
 40
0.3333333333333333
 40
0.4444444444444444
 40
0.5555555555555556
 40
0.6666666666666666
 40
0.7777777777777777
 40
0.8888888888888888
 40
1.0
 40
1.0
 40
1.0
 40
1.0
 10
-1036.1655095233697921
 20
4146.1126742432697938
 30
0.0
 10
-990.5562344696838863
 20
4121.6188043070305866
 30
0.0
 10
-951.7038890535811788
 20
4143.5788256291762082
 30
0.0
 10
-955.9269700770703366
 20
4168.9173117701120646
 30
0.0
 10
-957.6162024864663636
 20
4170.606544179507182
 30
0.0
 10
-988.8670020602878594
 20
4197.6342627298399748
 30
0.0
 10
-996.4685479025690711
 20
4229.7296785083599389
 30
0.0
 10
-1026.8747312716930082
 20
4256.7573970586927317
 30
0.0
 10
-1058.9701470502125176
 20
4231.4189109177559658
 30
0.0
 10
-1036.1655095233697921
 20
4184.1204034546744879
 30
0.0
 10
-1045.4562877750465759
 20
4152.8696038808520825
 30
0.0
 10
-1036.1655095233697921
 20
4146.1126742432697938
 30
0.0
  0
SPLINE
  5
B7
  8
Steine
 62
256
370
-1
  6
ByLayer
100
AcDbEntity
100
AcDbSpline
 70
8
 71
3
 72
10
 73
6
 74
0
 40
0.0
 40
0.0
 40
0.0
 40
0.0
 40
0.3333333333333333
 40
0.6666666666666666
 40
1.0
 40
1.0
 40
1.0
 40
1.0
 10
-917.0746246609676291
 20
4250.8450836258070922
 30
0.0
 10
-974.5085265804239043
 20
4348.8205633707621018
 30
0.0
 10
-910.3176950233844309
 20
4323.4820772298262455
 30
0.0
 10
-829.2345393723874167
 20
4277.0281859714414168
 30
0.0
 10
-896.8038357482184892
 20
4224.6619812801727676
 30
0.0
 10
-916.2300084562696156
 20
4249.1558512164119747
 30
0.0
  0
SPLINE
  5
B8
  8
Steine
 62
256
370
-1
  6
ByLayer
100
AcDbEntity
100
AcDbSpline
 70
8
 71
3
 72
13
 73
9
 74
0
 40
0.0
 40
0.0
 40
0.0
 40
0.0
 40
0.1666666666666667
 40
0.3333333333333333
 40
0.5
 40
0.6666666666666666
 40
0.8333333333333333
 40
1.0
 40
1.0
 40
1.0
 40
1.0
 10
-884.9792088824481198
 20
3992.3925249882536264
 30
0.0
 10
-821.6329935301062051
 20
4062.4956699781782845
 30
0.0
 10
-878.2222792448649216
 20
4109.7941774412602172
 30
0.0
 10
-906.0946139998952731
 20
4068.407983411063924
 30
0.0
 10
-932.2777163455295977
 20
4071.7864482298550683
 30
0.0
 10
-947.4808080300915663
 20
4000.8386870352323967
 30
0.0
 10
-946.6361918253935528
 20
3954.3847957768484775
 30
0.0
 10
-911.1623112280824444
 20
3989.014060169462482
 30
0.0
 10
-880.7561278589585072
 20
3993.2371411929516398
 30
0.0
  0
SPLINE
  5
B9
  8
Steine
 62
256
370
-1
  6
ByLayer
100
AcDbEntity
100
AcDbSpline
 70
8
 71
3
 72
11
 73
7
 74
0
 40
0.0
 40
0.0
 40
0.0
 40
0.0
 40
0.25
 40
0.5
 40
0.75
 40
1.0
 40
1.0
 40
1.0
 40
1.0
 10
-793.7606587750758536
 20
4131.7541987634049292
 30
0.0
 10
-887.5130574965417054
 20
4158.781917313737722
 30
0.0
 10
-852.0391768992301422
 20
4207.7696571862143173
 30
0.0
 10
-794.605274979773867
 20
4187.4988682734656322
 30
0.0
 10
-792.9160425703782948
 20
4157.0926849043416951
 30
0.0
 10
-787.0037291374931101
 20
4131.7541987634049292
 30
0.0
 10
-793.7606587750758536
 20
4132.5988149681033974
 30
0.0
  0
SPLINE
  5
BA
  8
Steine
 62
256
370
-1
  6
ByLayer
100
AcDbEntity
100
AcDbSpline
 70
8
 71
3
 72
16
 73
12
 74
0
 40
0.0
 40
0.0
 40
0.0
 40
0.0
 40
0.1111111111111111
 40
0.2222222222222222
 40
0.3333333333333333
 40
0.4444444444444444
 40
0.5555555555555556
 40
0.6666666666666666
 40
0.7777777777777777
 40
0.8888888888888888
 40
1.0
 40
1.0
 40
1.0
 40
1.0
 10
-977.0423751945174899
 20
4288.0081966325142275
 30
0.0
 10
-1006.6039423589438684
 20
4263.5143266962750204
 30
0.0
 10
-1039.5439743421613912
 20
4286.3189642231191101
 30
0.0
 10
-1039.5439743421613912
 20
4258.4466294680878491
 30
0.0
 10
-1063.1932280737021301
 20
4280.4066507902334706
 30
0.0
 10
-1067.4163090971917427
 20
4326.0159258439198311
 30
0.0
 10
-1034.4762771139737652
 20
4323.482077229825336
 30
0.0
 10
-988.8670020602878594
 20
4326.8605420486173898
 30
0.0
 10
-977.0423751945174899
 20
4325.1713096392213629
 30
0.0
 10
-978.7316076039135169
 20
4301.5220559076806239
 30
0.0
 10
-966.9069807381431474
 20
4297.2989748841910114
 30
0.0
 10
-976.1977589898199312
 20
4289.697429041909345
 30
0.0
  0
SPLINE
  5
BB
  8
Steine
 62
256
370
-1
  6
ByLayer
100
AcDbEntity
100
AcDbSpline
 70
8
 71
3
 72
13
 73
9
 74
0
 40
0.0
 40
0.0
 40
0.0
 40
0.0
 40
0.1666666666666667
 40
0.3333333333333333
 40
0.5
 40
0.6666666666666666
 40
0.8333333333333333
 40
1.0
 40
1.0
 40
1.0
 40
1.0
 10
-1054.7470660267233598
 20
3948.4724823439632928
 30
0.0
 10
-968.5962131475387196
 20
4015.1971625150963519
 30
0.0
 10
-1004.9147099495478415
 20
4108.1049450318641902
 30
0.0
 10
-1085.1532493958472969
 20
4083.6110750956254378
 30
0.0
 10
-1032.7870447045784204
 20
4033.7787190184503743
 30
0.0
 10
-1062.3486118690041167
 20
3995.7709898070447707
 30
0.0
 10
-1069.1055415065873149
 20
3966.2094226426193018
 30
0.0
 10
-1058.9701470502125176
 20
3945.9386337298697072
 30
0.0
 10
-1055.5916822314211458
 20
3947.6278661392657341
 30
0.0
  0
SPLINE
  5
BC
  8
Steine
 62
256
370
-1
  6
ByLayer
100
AcDbEntity
100
AcDbSpline
 70
8
 71
3
 72
17
 73
13
 74
0
 40
0.0
 40
0.0
 40
0.0
 40
0.0
 40
0.1
 40
0.2
 40
0.3
 40
0.4
 40
0.5
 40
0.6000000000000001
 40
0.7000000000000001
 40
0.8
 40
0.9
 40
1.0
 40
1.0
 40
1.0
 40
1.0
 10
-941.5684945972063815
 20
4164.6942307466233615
 30
0.0
 10
-976.1977589898199312
 20
4187.4988682734656322
 30
0.0
 10
-990.5562344696838863
 20
4220.438900256683155
 30
0.0
 10
-999.0023965166626567
 20
4248.3112350117135065
 30
0.0
 10
-994.7793154931734989
 20
4268.5820239244631011
 30
0.0
 10
-964.373132124049107
 20
4292.2312776560038401
 30
0.0
 10
-946.6361918253935528
 20
4301.5220559076806239
 30
0.0
 10
-917.0746246609676291
 20
4247.4666188070159478
 30
0.0
 10
-893.4253709294268901
 20
4226.3512136895687945
 30
0.0
 10
-934.8115649596231833
 20
4210.3035058003088125
 30
0.0
 10
-939.0346459831127959
 20
4192.5665655016528035
 30
0.0
 10
-933.9669487549251699
 20
4164.694230746622452
 30
0.0
 10
-940.7238783925083681
 20
4164.694230746622452
 30
0.0
  0
SPLINE
  5
BD
  8
Steine
 62
256
370
-1
  6
ByLayer
100
AcDbEntity
100
AcDbSpline
 70
8
 71
3
 72
15
 73
11
 74
0
 40
0.0
 40
0.0
 40
0.0
 40
0.0
 40
0.125
 40
0.25
 40
0.375
 40
0.5
 40
0.625
 40
0.75
 40
0.875
 40
1.0
 40
1.0
 40
1.0
 40
1.0
 10
-933.9669487549251699
 20
4163.0049983372264251
 30
0.0
 10
-936.5007973690192102
 20
4196.7896465251424161
 30
0.0
 10
-907.7838464092908453
 20
4217.0604354378920107
 30
0.0
 10
-880.7561278589585072
 20
4242.3989215788278671
 30
0.0
 10
-849.5053282851365566
 20
4253.3789322399006778
 30
0.0
 10
-834.302236600574588
 20
4218.7496678472871281
 30
0.0
 10
-842.7483986475533584
 20
4198.478878934538443
 30
0.0
 10
-863.8638037650005117
 20
4183.2757872499769292
 30
0.0
 10
-873.1545820166772955
 20
4168.0726955654135963
 30
0.0
 10
-908.6284626139888587
 20
4155.4034524949456681
 30
0.0
 10
-932.2777163455295977
 20
4161.3157659278313076
 30
0.0
  0
SPLINE
  5
BE
  8
Steine
 62
256
370
-1
  6
ByLayer
100
AcDbEntity
100
AcDbSpline
 70
8
 71
3
 72
14
 73
10
 74
0
 40
0.0
 40
0.0
 40
0.0
 40
0.0
 40
0.1428571428571428
 40
0.2857142857142857
 40
0.4285714285714285
 40
0.5714285714285714
 40
0.7142857142857142
 40
0.8571428571428571
 40
1.0
 40
1.0
 40
1.0
 40
1.0
 10
-1026.0301150669949948
 20
4092.9018533473022217
 30
0.0
 10
-985.4885372414967151
 20
4060.8064375687822576
 30
0.0
 10
-949.1700404394871384
 20
4074.3202968439491087
 30
0.0
 10
-942.413110801904395
 20
4114.0172584647498297
 30
0.0
 10
-973.6639103757258908
 20
4133.4434311728009561
 30
0.0
 10
-1002.3808613354542558
 20
4130.9095825587073705
 30
0.0
 10
-1023.4962664529014091
 20
4133.4434311728009561
 30
0.0
 10
-1027.7193474763910217
 20
4111.4834098506562441
 30
0.0
 10
-1027.7193474763910217
 20
4099.6587829848849651
 30
0.0
 10
-1024.3408826575994226
 20
4092.0572371426046629
 30
0.0
  0
SPLINE
  5
BF
  8
Steine
 62
256
370
-1
  6
ByLayer
100
AcDbEntity
100
AcDbSpline
 70
8
 71
3
 72
18
 73
14
 74
0
 40
0.0
 40
0.0
 40
0.0
 40
0.0
 40
0.0909090909090909
 40
0.1818181818181818
 40
0.2727272727272727
 40
0.3636363636363636
 40
0.4545454545454546
 40
0.5454545454545454
 40
0.6363636363636364
 40
0.7272727272727273
 40
0.8181818181818182
 40
0.9090909090909092
 40
1.0
 40
1.0
 40
1.0
 40
1.0
 10
-899.3376843623120749
 20
4080.2326102768338387
 30
0.0
 10
-942.413110801904395
 20
4098.8141667801874064
 30
0.0
 10
-954.2377376676747645
 20
4123.3080367164257041
 30
0.0
 10
-959.3054348958619357
 20
4138.5111284009881274
 30
0.0
 10
-953.393121462976751
 20
4156.2480686996441364
 30
0.0
 10
-935.6561811643211968
 20
4159.6265335184361902
 30
0.0
 10
-914.5407760468740435
 20
4155.4034524949456681
 30
0.0
 10
-891.7361385200308632
 20
4158.781917313737722
 30
0.0
 10
-873.1545820166772955
 20
4162.1603821325288664
 30
0.0
 10
-862.1745713556049395
 20
4158.781917313737722
 30
0.0
 10
-859.6407227415113539
 20
4130.909582558706461
 30
0.0
 10
-872.3099658119797368
 20
4109.7941774412602172
 30
0.0
 10
-887.5130574965417054
 20
4089.5233885285110773
 30
0.0
 10
-899.3376843623120749
 20
4081.0772264815318522
 30
0.0
  0
SPLINE
  5
C0
  8
Steine
 62
256
370
-1
  6
ByLayer
100
AcDbEntity
100
AcDbSpline
 70
8
 71
3
 72
18
 73
14
 74
0
 40
0.0
 40
0.0
 40
0.0
 40
0.0
 40
0.0909090909090909
 40
0.1818181818181818
 40
0.2727272727272727
 40
0.3636363636363636
 40
0.4545454545454546
 40
0.5454545454545454
 40
0.6363636363636364
 40
0.7272727272727273
 40
0.8181818181818182
 40
0.9090909090909092
 40
1.0
 40
1.0
 40
1.0
 40
1.0
 10
-832.6130041911790158
 20
4046.4479620889187572
 30
0.0
 10
-847.8160958757409844
 20
4080.2326102768338387
 30
0.0
 10
-868.0868847884901243
 20
4094.5910857566977938
 30
0.0
 10
-869.7761171978861512
 20
4114.0172584647498297
 30
0.0
 10
-861.3299551509069261
 20
4126.6865015352177579
 30
0.0
 10
-857.1068741274177682
 20
4146.1126742432697938
 30
0.0
 10
-846.1268634663449575
 20
4150.3357552667584969
 30
0.0
 10
-824.1668421441997907
 20
4137.6665121962905687
 30
0.0
 10
-803.8960532314506509
 20
4133.4434311728009561
 30
0.0
 10
-781.9360319093054841
 20
4119.084955692937001
 30
0.0
 10
-789.5375777515866957
 20
4103.037247803677019
 30
0.0
 10
-808.9637504596378221
 20
4055.7387403405950863
 30
0.0
 10
-822.4776097348042185
 20
4044.7587296795227303
 30
0.0
 10
-831.7683879864810024
 20
4045.603345884220289
 30
0.0
  0
SPLINE
  5
C1
  8
Steine
 62
256
370
-1
  6
ByLayer
100
AcDbEntity
100
AcDbSpline
 70
8
 71
3
 72
17
 73
13
 74
0
 40
0.0
 40
0.0
 40
0.0
 40
0.0
 40
0.1
 40
0.2
 40
0.3
 40
0.4
 40
0.5
 40
0.6000000000000001
 40
0.7000000000000001
 40
0.8
 40
0.9
 40
1.0
 40
1.0
 40
1.0
 40
1.0
 10
-950.8592728488831654
 20
3975.5002008942956309
 30
0.0
 10
-942.413110801904395
 20
4016.0417787197943653
 30
0.0
 10
-939.8792621878108093
 20
4044.7587296795227303
 30
0.0
 10
-935.6561811643211968
 20
4057.4279727499911132
 30
0.0
 10
-939.8792621878108093
 20
4083.6110750956258926
 30
0.0
 10
-962.6838997146535348
 20
4068.4079834110634692
 30
0.0
 10
-979.5762238086115303
 20
4063.3402861828767527
 30
0.0
 10
-988.0223858555903007
 20
4038.8464162466375456
 30
0.0
 10
-995.6239316978710576
 20
4015.1971625150963519
 30
0.0
 10
-993.9346992884754854
 20
4011.8186976963052075
 30
0.0
 10
-991.4008506743818998
 20
3985.6355953506708829
 30
0.0
 10
-977.8869913992155034
 20
3977.1894333036916578
 30
0.0
 10
-955.926970077070564
 20
3973.8109684849005134
 30
0.0
  0
SPLINE
  5
C2
  8
Steine
 62
256
370
-1
  6
ByLayer
100
AcDbEntity
100
AcDbSpline
 70
8
 71
3
 72
17
 73
13
 74
0
 40
0.0
 40
0.0
 40
0.0
 40
0.0
 40
0.1
 40
0.2
 40
0.3
 40
0.4
 40
0.5
 40
0.6000000000000001
 40
0.7000000000000001
 40
0.8
 40
0.9
 40
1.0
 40
1.0
 40
1.0
 40
1.0
 10
-1047.8519789533206676
 20
4324.3565931781049585
 30
0.0
 10
-1049.1716917731612284
 20
4329.6354444574662921
 30
0.0
 10
-1046.5322661334803342
 20
4334.9142957368276257
 30
0.0
 10
-1037.294276394597091
 20
4334.9142957368276257
 30
0.0
 10
-1026.7365738358735143
 20
4341.5128598360306569
 30
0.0
 10
-1022.7774353763521731
 20
4363.9479777733176888
 30
0.0
 10
-1009.5803071779475886
 20
4374.505680332042175
 30
0.0
 10
-979.226912321617192
 20
4366.5874034129992651
 30
0.0
 10
-966.0297841232126075
 20
4357.3494136741155671
 30
0.0
 10
-987.1451892406598745
 20
4330.9551572773070802
 30
0.0
 10
-1012.2197328176284827
 20
4330.9551572773070802
 30
0.0
 10
-1035.9745635747567576
 20
4328.3157316376255039
 30
0.0
 10
-1049.1716917731612284
 20
4324.3565931781049585
 30
0.0
  0
SPLINE
  5
C3
  8
Steine
 62
256
370
-1
  6
ByLayer
100
AcDbEntity
100
AcDbSpline
 70
8
 71
3
 72
18
 73
14
 74
0
 40
0.0
 40
0.0
 40
0.0
 40
0.0
 40
0.0909090909090909
 40
0.1818181818181818
 40
0.2727272727272727
 40
0.3636363636363636
 40
0.4545454545454546
 40
0.5454545454545454
 40
0.6363636363636364
 40
0.7272727272727273
 40
0.8181818181818182
 40
0.9090909090909092
 40
1.0
 40
1.0
 40
1.0
 40
1.0
 10
-971.3086354025743958
 20
4304.5609008804976838
 30
0.0
 10
-977.9071995017766312
 20
4330.9551572773070802
 30
0.0
 10
-977.9071995017766312
 20
4340.1931470161898687
 30
0.0
 10
-972.6283482224148429
 20
4344.1522854757113237
 30
0.0
 10
-972.6283482224148429
 20
4362.6282649534778102
 30
0.0
 10
-959.4312200240103721
 20
4367.9071162328400533
 30
0.0
 10
-936.996102086722658
 20
4365.267690593158477
 30
0.0
 10
-938.3158149065631051
 20
4359.9888393137971434
 30
0.0
 10
-946.2340918256057876
 20
4341.5128598360306569
 30
0.0
 10
-951.5129431049675759
 20
4329.6354444574662921
 30
0.0
 10
-947.5538046454462346
 20
4312.4791777995405937
 30
0.0
 10
-952.832655924808023
 20
4305.8806137003375625
 30
0.0
 10
-963.3903584835317133
 20
4295.3229111416148953
 30
0.0
 10
-969.9889225827339487
 20
4301.921475240817017
 30
0.0
  0
SPLINE
  5
C4
  8
Steine
 62
256
370
-1
  6
ByLayer
100
AcDbEntity
100
AcDbSpline
 70
8
 71
3
 72
22
 73
18
 74
0
 40
0.0
 40
0.0
 40
0.0
 40
0.0
 40
0.0666666666666667
 40
0.1333333333333333
 40
0.2
 40
0.2666666666666667
 40
0.3333333333333333
 40
0.4
 40
0.4666666666666667
 40
0.5333333333333333
 40
0.6
 40
0.6666666666666666
 40
0.7333333333333333
 40
0.8
 40
0.8666666666666667
 40
0.9333333333333333
 40
1.0
 40
1.0
 40
1.0
 40
1.0
 10
-932.4562899864741894
 20
4333.8690831835247081
 30
0.0
 10
-939.2132196240573876
 20
4344.6801706036576434
 30
0.0
 10
-939.2132196240573876
 20
4353.4641791325157101
 30
0.0
 10
-933.8076759139908063
 20
4362.9238806251323695
 30
0.0
 10
-925.0236673851327396
 20
4361.5724946976151841
 30
0.0
 10
-912.1855010737248222
 20
4351.4371002412408416
 30
0.0
 10
-892.5904051247337065
 20
4347.3829424586911045
 30
0.0
 10
-883.8063965958755261
 20
4337.9232409660744452
 30
0.0
 10
-859.4814499005761945
 20
4323.0579957633908634
 30
0.0
 10
-850.6974413717181278
 20
4314.2739872345337062
 30
0.0
 10
-834.4808102415186113
 20
4298.7330490680924413
 30
0.0
 10
-826.3724946764187962
 20
4277.1108742278265709
 30
0.0
 10
-852.72452026299311
 20
4292.6518123942678358
 30
0.0
 10
-866.2383795381593927
 20
4294.0031983217841116
 30
0.0
 10
-881.7793177046006576
 20
4308.1927505607091007
 30
0.0
 10
-905.428571436141624
 20
4319.6795309445997191
 30
0.0
 10
-924.347974421374488
 20
4325.7607676184252341
 30
0.0
 10
-932.4562899864741894
 20
4332.5176972560075228
 30
0.0
  0
SPLINE
  5
C5
  8
Steine
 62
256
370
-1
  6
ByLayer
100
AcDbEntity
100
AcDbSpline
 70
8
 71
3
 72
22
 73
18
 74
0
 40
0.0
 40
0.0
 40
0.0
 40
0.0
 40
0.0666666666666667
 40
0.1333333333333333
 40
0.2
 40
0.2666666666666667
 40
0.3333333333333333
 40
0.4
 40
0.4666666666666667
 40
0.5333333333333333
 40
0.6
 40
0.6666666666666666
 40
0.7333333333333333
 40
0.8
 40
0.8666666666666667
 40
0.9333333333333333
 40
1.0
 40
1.0
 40
1.0
 40
1.0
 10
-860.8328358280929251
 20
4252.7859275325263297
 30
0.0
 10
-858.8057569368179429
 20
4265.624093843935043
 30
0.0
 10
-856.1029850817847091
 20
4279.1379531191014394
 30
0.0
 10
-843.9405117341350433
 20
4281.1650320103763079
 30
0.0
 10
-831.7780383864853775
 20
4281.1650320103763079
 30
0.0
 10
-821.6426439301105802
 20
4282.5164179378925837
 30
0.0
 10
-812.8586354012525135
 20
4271.7053305177596485
 30
0.0
 10
-799.3447761260862308
 20
4250.0831556774937781
 30
0.0
 10
-791.2364605609864157
 20
4229.8123667647441835
 30
0.0
 10
-783.8038379596449658
 20
4210.8929637795117742
 30
0.0
 10
-787.1823027784365649
 20
4191.9735607942784554
 30
0.0
 10
-800.0204690898445961
 20
4191.9735607942784554
 30
0.0
 10
-815.5614072562857473
 20
4195.3520256130705093
 30
0.0
 10
-833.1294243140019944
 20
4204.8117271056862592
 30
0.0
 10
-836.5078891327935935
 20
4214.9471215620615112
 30
0.0
 10
-836.5078891327935935
 20
4231.1637526922604593
 30
0.0
 10
-845.2918976616516602
 20
4242.6505330761519872
 30
0.0
 10
-860.1571428643345598
 20
4250.7588486412514612
 30
0.0
  0
SPLINE
  5
C6
  8
Steine
 62
256
370
-1
  6
ByLayer
100
AcDbEntity
100
AcDbSpline
 70
8
 71
3
 72
17
 73
13
 74
0
 40
0.0
 40
0.0
 40
0.0
 40
0.0
 40
0.1
 40
0.2
 40
0.3
 40
0.4
 40
0.5
 40
0.6000000000000001
 40
0.7000000000000001
 40
0.8
 40
0.9
 40
1.0
 40
1.0
 40
1.0
 40
1.0
 10
-866.9140725019188949
 20
4002.1038379781962249
 30
0.0
 10
-859.4814499005774451
 20
4021.0232409634290889
 30
0.0
 10
-845.2918976616527971
 20
4042.6454158036949593
 30
0.0
 10
-846.643283589169414
 20
4042.6454158036949593
 30
0.0
 10
-827.72388060393655
 20
4043.3211087674530972
 30
0.0
 10
-813.534328365011902
 20
4042.6454158036949593
 30
0.0
 10
-809.4801705824620512
 20
4022.3746268909453647
 30
0.0
 10
-812.8586354012536503
 20
4006.8336887245040998
 30
0.0
 10
-826.3724946764199331
 20
3989.2656716667879664
 30
0.0
 10
-857.4543710093024629
 20
3967.6434968265220959
 30
0.0
 10
-872.9953091757437278
 20
3977.7788912828968932
 30
0.0
 10
-874.3466951032603447
 20
3999.4010661231627637
 30
0.0
 10
-866.9140725019188949
 20
4003.4552239057125007
 30
0.0
  0
SPLINE
  5
C7
  8
Steine
 62
256
370
-1
  6
ByLayer
100
AcDbEntity
100
AcDbSpline
 70
8
 71
3
 72
19
 73
15
 74
0
 40
0.0
 40
0.0
 40
0.0
 40
0.0
 40
0.0833333333333333
 40
0.1666666666666667
 40
0.25
 40
0.3333333333333333
 40
0.4166666666666666
 40
0.5
 40
0.5833333333333333
 40
0.6666666666666666
 40
0.75
 40
0.8333333333333333
 40
0.9166666666666666
 40
1.0
 40
1.0
 40
1.0
 40
1.0
 10
-1025.0262260213646641
 20
3914.263752689615103
 30
0.0
 10
-1036.513006405256192
 20
3946.0213219862557708
 30
0.0
 10
-1022.9991471300897956
 20
3975.0761194278634321
 30
0.0
 10
-1012.1880597099567467
 20
3986.56289981175496
 30
0.0
 10
-1001.3769722898236978
 20
3986.56289981175496
 30
0.0
 10
-981.1061833770742169
 20
3979.8059701741717618
 30
0.0
 10
-964.8895522468745867
 20
3971.697654609071833
 30
0.0
 10
-945.2944562978834711
 20
3968.9948827540388265
 30
0.0
 10
-939.8889125878170034
 20
3957.5081023701472986
 30
0.0
 10
-935.834754805267039
 20
3938.5886993849144346
 30
0.0
 10
-936.5104477690254043
 20
3926.4262260372647688
 30
0.0
 10
-947.3215351891584532
 20
3919.6692963996815706
 30
0.0
 10
-975.024946703249384
 20
3910.209594907065366
 30
0.0
 10
-1015.5665245287483458
 20
3909.5339019433067733
 30
0.0
 10
-1026.3776119488813947
 20
3913.5880597258565103
 30
0.0
  0
SPLINE
  5
C8
  8
Steine
 62
256
370
-1
  6
ByLayer
100
AcDbEntity
100
AcDbSpline
 70
8
 71
3
 72
17
 73
13
 74
0
 40
0.0
 40
0.0
 40
0.0
 40
0.0
 40
0.1
 40
0.2
 40
0.3
 40
0.4
 40
0.5
 40
0.6000000000000001
 40
0.7000000000000001
 40
0.8
 40
0.9
 40
1.0
 40
1.0
 40
1.0
 40
1.0
 10
-931.7805970227171883
 20
3925.7505330735066309
 30
0.0
 10
-934.4833688777504221
 20
3956.832409406388706
 30
0.0
 10
-925.6993603488923554
 20
3971.021961645313695
 30
0.0
 10
-912.8611940374843243
 20
3981.1573561016884923
 30
0.0
 10
-895.9688699435264425
 20
3985.2115138842382294
 30
0.0
 10
-880.4279317770851776
 20
3987.9142857392712358
 30
0.0
 10
-868.9411513931938771
 20
3981.8330490654466303
 30
0.0
 10
-862.1842217556106789
 20
3966.2921108990053654
 30
0.0
 10
-866.9140725019188949
 20
3956.1567164426305681
 30
0.0
 10
-880.4279317770851776
 20
3947.3727079137725013
 30
0.0
 10
-902.0501066173512754
 20
3934.5345416023646976
 30
0.0
 10
-918.2667377475509056
 20
3928.4533049285396373
 30
0.0
 10
-931.7805970227171883
 20
3923.7234541822313076
 30
0.0
  0
SPLINE
  5
C9
  8
Steine
 62
256
370
-1
  6
ByLayer
100
AcDbEntity
100
AcDbSpline
 70
8
 71
3
 72
19
 73
15
 74
0
 40
0.0
 40
0.0
 40
0.0
 40
0.0
 40
0.0833333333333333
 40
0.1666666666666667
 40
0.25
 40
0.3333333333333333
 40
0.4166666666666666
 40
0.5
 40
0.5833333333333333
 40
0.6666666666666666
 40
0.75
 40
0.8333333333333333
 40
0.9166666666666666
 40
1.0
 40
1.0
 40
1.0
 40
1.0
 10
-1123.6773987300787212
 20
3939.9400853124311652
 30
0.0
 10
-1115.5690831649790198
 20
3952.778251623838969
 30
0.0
 10
-1101.3795309260544855
 20
3960.2108742251803051
 30
0.0
 10
-1087.1899786871297238
 20
3967.6434968265220959
 30
0.0
 10
-1079.7573560857883876
 20
3963.5893390439719042
 30
0.0
 10
-1070.2976545931719556
 20
3953.4539445875975616
 30
0.0
 10
-1058.1351812455222898
 20
3941.9671642037060337
 30
0.0
 10
-1041.2428571515642943
 20
3944.6699360587390402
 30
0.0
 10
-1031.107462695189497
 20
3934.5345416023646976
 30
0.0
 10
-1040.567164187805929
 20
3910.209594907065366
 30
0.0
 10
-1070.9733475569300936
 20
3916.2908315808899715
 30
0.0
 10
-1093.2712153609545567
 20
3925.7505330735066309
 30
0.0
 10
-1111.5149253824290554
 20
3932.5074627110893744
 30
0.0
 10
-1118.9475479837706189
 20
3938.5886993849144346
 30
0.0
 10
-1121.6503198388038527
 20
3939.2643923486725726
 30
0.0
  0
SPLINE
  5
CA
  8
Steine
 62
256
370
-1
  6
ByLayer
100
AcDbEntity
100
AcDbSpline
 70
8
 71
3
 72
19
 73
15
 74
0
 40
0.0
 40
0.0
 40
0.0
 40
0.0
 40
0.0833333333333333
 40
0.1666666666666667
 40
0.25
 40
0.3333333333333333
 40
0.4166666666666666
 40
0.5
 40
0.5833333333333333
 40
0.6666666666666666
 40
0.75
 40
0.8333333333333333
 40
0.9166666666666666
 40
1.0
 40
1.0
 40
1.0
 40
1.0
 10
-1183.814072504570504
 20
3989.2656716667920591
 30
0.0
 10
-1188.5439232508786063
 20
4004.1309168694751861
 30
0.0
 10
-1175.0300639757124372
 20
4018.3204691083997204
 30
0.0
 10
-1162.1918976643044061
 20
4022.3746268909494574
 30
0.0
 10
-1148.0023454253796444
 20
4012.9149253983332528
 30
0.0
 10
-1139.894029860279943
 20
4006.8336887245081925
 30
0.0
 10
-1131.1100213314218763
 20
3994.6712153768585267
 30
0.0
 10
-1129.7586354039051457
 20
3979.1302772104172618
 30
0.0
 10
-1124.3530916938386781
 20
3968.9948827540424645
 30
0.0
 10
-1125.0287846575970434
 20
3951.4268656963263311
 30
0.0
 10
-1139.2183368965215777
 20
3952.1025586600849238
 30
0.0
 10
-1151.3808102441712435
 20
3959.5351812614262599
 30
0.0
 10
-1165.5703624830960052
 20
3971.0219616453177878
 30
0.0
 10
-1175.0300639757124372
 20
3981.1573561016921303
 30
0.0
 10
-1185.8411513958453725
 20
3988.5899787030339212
 30
0.0
  0
SPLINE
  5
CB
  8
Steine
 62
256
370
-1
  6
ByLayer
100
AcDbEntity
100
AcDbSpline
 70
8
 71
3
 72
20
 73
16
 74
0
 40
0.0
 40
0.0
 40
0.0
 40
0.0
 40
0.0769230769230769
 40
0.1538461538461539
 40
0.2307692307692308
 40
0.3076923076923077
 40
0.3846153846153846
 40
0.4615384615384616
 40
0.5384615384615385
 40
0.6153846153846154
 40
0.6923076923076923
 40
0.7692307692307693
 40
0.8461538461538463
 40
0.9230769230769231
 40
1.0
 40
1.0
 40
1.0
 40
1.0
 10
-1233.0045202661822259
 20
4196.8385501333632419
 30
0.0
 10
-1227.5989765561157583
 20
4216.8390618606099451
 30
0.0
 10
-1218.4095522490026724
 20
4239.5423454428892001
 30
0.0
 10
-1212.4634541679292852
 20
4256.8400853151024421
 30
0.0
 10
-1199.490149263769581
 20
4271.435053332282223
 30
0.0
 10
-1187.0573987306165691
 20
4275.7594883003348514
 30
0.0
 10
-1182.7329637625632586
 20
4269.272835848255454
 30
0.0
 10
-1173.0029850844434804
 20
4256.8400853151024421
 30
0.0
 10
-1184.3546268755833353
 20
4248.7317697500020586
 30
0.0
 10
-1188.1385074726299536
 20
4230.3529211357763415
 30
0.0
 10
-1192.4629424406830367
 20
4210.89296377953724
 30
0.0
 10
-1190.3007249566564951
 20
4200.6224307304100876
 30
0.0
 10
-1201.65236674779635
 20
4199.5413219883967031
 30
0.0
 10
-1218.9501066200093646
 20
4191.9735607943039213
 30
0.0
 10
-1232.463965895175761
 20
4189.2707889392704601
 30
0.0
 10
-1234.0856290081956104
 20
4195.2168870203440747
 30
0.0
  0
SPLINE
  5
CC
  8
Steine
 62
256
370
-1
  6
ByLayer
100
AcDbEntity
100
AcDbSpline
 70
8
 71
3
 72
12
 73
8
 74
0
 40
0.0
 40
0.0
 40
0.0
 40
0.0
 40
0.2
 40
0.4
 40
0.6000000000000001
 40
0.8
 40
1.0
 40
1.0
 40
1.0
 40
1.0
 10
-1127.3840596307413762
 20
4005.0617680587220093
 30
0.0
 10
-1109.6471193320860493
 20
4092.0572371426046629
 30
0.0
 10
-1066.5716928924937292
 20
4073.4756806392510953
 30
0.0
 10
-1040.0
 20
4020.0
 30
0.0
 10
-1088.5317142146386686
 20
3967.0540388473168605
 30
0.0
 10
-1125.6948272213460314
 20
3952.6955633674529054
 30
0.0
 10
-1132.4517568589287748
 20
3983.946362941274856
 30
0.0
 10
-1128.228675835439617
 20
4001.6833032399304102
 30
0.0
  0
SPLINE
  5
CD
  8
Steine
 62
256
370
-1
  6
ByLayer
100
AcDbEntity
100
AcDbSpline
 70
8
 71
3
 72
23
 73
19
 74
0
 40
0.0
 40
0.0
 40
0.0
 40
0.0
 40
0.0625
 40
0.125
 40
0.1875
 40
0.25
 40
0.3125
 40
0.375
 40
0.4375
 40
0.5
 40
0.5625
 40
0.625
 40
0.6875
 40
0.75
 40
0.8125
 40
0.875
 40
0.9375
 40
1.0
 40
1.0
 40
1.0
 40
1.0
 10
-1043.767055365650549
 20
4176.5188576123928215
 30
0.0
 10
-1072.484006325378914
 20
4168.0726955654145058
 30
0.0
 10
-1090.0
 20
4180.0
 30
0.0
 10
-1107.9578869226900224
 20
4190.8773330922576861
 30
0.0
 10
-1111.3363517414816215
 20
4220.438900256683155
 30
0.0
 10
-1116.4040489696692475
 20
4245.7773863976199209
 30
0.0
 10
-1113.8702003555752071
 20
4271.1158725385566868
 30
0.0
 10
-1110.4917355367840628
 20
4277.872802176139885
 30
0.0
 10
-1090.0
 20
4280.0
 30
0.0
 10
-1080.0
 20
4310.0
 30
0.0
 10
-1060.6593794596085445
 20
4273.6497211526502724
 30
0.0
 10
-1058.9701470502125176
 20
4271.9604887432542455
 30
0.0
 10
-1033.6316609092762064
 20
4262.6697104915783711
 30
0.0
 10
-1042.0778229562549768
 20
4256.7573970586927317
 30
0.0
 10
-1047.9901363891401616
 20
4232.2635271224535245
 30
0.0
 10
-1052.2132174126297741
 20
4209.4588895956112538
 30
0.0
 10
-1046.3009039797445894
 20
4195.1004141157463891
 30
0.0
 10
-1043.767055365650549
 20
4182.431171045278461
 30
0.0
 10
-1042.9224391609529903
 20
4174.829625202997704
 30
0.0
  0
SPLINE
  5
CE
  8
Steine
 62
256
370
-1
  6
ByLayer
100
AcDbEntity
100
AcDbSpline
 70
8
 71
3
 72
13
 73
9
 74
0
 40
0.0
 40
0.0
 40
0.0
 40
0.0
 40
0.1666666666666667
 40
0.3333333333333333
 40
0.5
 40
0.6666666666666666
 40
0.8333333333333333
 40
1.0
 40
1.0
 40
1.0
 40
1.0
 10
-2550.0645853674532191
 20
4275.1226274561049649
 30
0.0
 10
-2471.9375864329012984
 20
4292.0149515500615962
 30
0.0
 10
-2506.7780048766876462
 20
4326.8553699938493082
 30
0.0
 10
-2506.7780048766876462
 20
4330.0226807614653808
 30
0.0
 10
-2558.5107474144319895
 20
4322.6322889703587862
 30
0.0
 10
-2585.9607740671121974
 20
4293.0707218059342267
 30
0.0
 10
-2581.7376930436225848
 20
4275.1226274561049649
 30
0.0
 10
-2581.7376930436225848
 20
4275.1226274561049649
 30
0.0
 10
-2549.9395649795574172
 20
4275.1294869830435346
 30
0.0
  0
SPLINE
  5
CF
  8
Steine
 62
256
370
-1
  6
ByLayer
100
AcDbEntity
100
AcDbSpline
 70
8
 71
3
 72
13
 73
9
 74
0
 40
0.0
 40
0.0
 40
0.0
 40
0.0
 40
0.1666666666666667
 40
0.3333333333333333
 40
0.5
 40
0.6666666666666666
 40
0.8333333333333333
 40
1.0
 40
1.0
 40
1.0
 40
1.0
 10
-2509.5483460281270709
 20
4351.0451780964858699
 30
0.0
 10
-2501.4400304630275969
 20
4323.4769051751472944
 30
0.0
 10
-2496.0344867529606745
 20
4287.8003166887083353
 30
0.0
 10
-2454.4118001854490103
 20
4326.7202314011865383
 30
0.0
 10
-2463.0606701215556313
 20
4343.4774169023930881
 30
0.0
 10
-2425.7624185220970503
 20
4337.531318821320383
 30
0.0
 10
-2443.0601583943098376
 20
4375.9106791627909843
 30
0.0
 10
-2489.0072799298745849
 20
4362.3968198876254974
 30
0.0
 10
-2509.0077916571203787
 20
4353.2073955805126388
 30
0.0
  0
SPLINE
  5
D0
  8
Steine
 62
256
370
-1
  6
ByLayer
100
AcDbEntity
100
AcDbSpline
 70
8
 71
3
 72
16
 73
12
 74
0
 40
0.0
 40
0.0
 40
0.0
 40
0.0
 40
0.1111111111111111
 40
0.2222222222222222
 40
0.3333333333333333
 40
0.4444444444444444
 40
0.5555555555555556
 40
0.6666666666666666
 40
0.7777777777777777
 40
0.8888888888888888
 40
1.0
 40
1.0
 40
1.0
 40
1.0
 10
-2436.4962862458637574
 20
4145.1801977275572426
 30
0.0
 10
-2390.8870111921773969
 20
4120.6863277913180355
 30
0.0
 10
-2352.0346657760751441
 20
4142.646349113463657
 30
0.0
 10
-2356.2577467995638472
 20
4167.9848352543995134
 30
0.0
 10
-2357.9469792089598741
 20
4169.6740676637946308
 30
0.0
 10
-2389.19777878278137
 20
4196.7017862141274236
 30
0.0
 10
-2396.7993246250630364
 20
4228.7972019926473877
 30
0.0
 10
-2427.2055079941869735
 20
4255.8249205429801805
 30
0.0
 10
-2459.3009237727060281
 20
4230.4864344020434146
 30
0.0
 10
-2436.4962862458637574
 20
4183.1879269389619367
 30
0.0
 10
-2445.7870644975405412
 20
4151.9371273651395313
 30
0.0
 10
-2436.4962862458637574
 20
4145.1801977275572426
 30
0.0
  0
SPLINE
  5
D1
  8
Steine
 62
256
370
-1
  6
ByLayer
100
AcDbEntity
100
AcDbSpline
 70
8
 71
3
 72
10
 73
6
 74
0
 40
0.0
 40
0.0
 40
0.0
 40
0.0
 40
0.3333333333333333
 40
0.6666666666666666
 40
1.0
 40
1.0
 40
1.0
 40
1.0
 10
-2317.4054013834615944
 20
4249.912607110094541
 30
0.0
 10
-2374.8393033029174148
 20
4347.8880868550495506
 30
0.0
 10
-2310.6484717458783962
 20
4322.5496007141136943
 30
0.0
 10
-2229.5653160948809273
 20
4276.0957094557288656
 30
0.0
 10
-2297.1346124707119998
 20
4223.7295047644602164
 30
0.0
 10
-2316.5607851787631262
 20
4248.2233747006994236
 30
0.0
  0
SPLINE
  5
D2
  8
Steine
 62
256
370
-1
  6
ByLayer
100
AcDbEntity
100
AcDbSpline
 70
8
 71
3
 72
13
 73
9
 74
0
 40
0.0
 40
0.0
 40
0.0
 40
0.0
 40
0.1666666666666667
 40
0.3333333333333333
 40
0.5
 40
0.6666666666666666
 40
0.8333333333333333
 40
1.0
 40
1.0
 40
1.0
 40
1.0
 10
-2285.3099856049416303
 20
3991.4600484725410752
 30
0.0
 10
-2221.9637702526001704
 20
4061.5631934624657333
 30
0.0
 10
-2278.5530559673584321
 20
4108.861700925547666
 30
0.0
 10
-2306.4253907223887836
 20
4067.4755068953513728
 30
0.0
 10
-2332.6084930680231082
 20
4070.8539717141425172
 30
0.0
 10
-2347.8115847525855315
 20
3999.9062105195198455
 30
0.0
 10
-2346.9669685478870633
 20
3953.4523192611359264
 30
0.0
 10
-2311.4930879505759549
 20
3988.0815836537499308
 30
0.0
 10
-2281.0869045814520177
 20
3992.3046646772390886
 30
0.0
  0
SPLINE
  5
D3
  8
Steine
 62
256
370
-1
  6
ByLayer
100
AcDbEntity
100
AcDbSpline
 70
8
 71
3
 72
11
 73
7
 74
0
 40
0.0
 40
0.0
 40
0.0
 40
0.0
 40
0.25
 40
0.5
 40
0.75
 40
1.0
 40
1.0
 40
1.0
 40
1.0
 10
-2194.0914354975698188
 20
4130.821722247692378
 30
0.0
 10
-2287.8438342190352159
 20
4157.8494407980251708
 30
0.0
 10
-2252.3699536217241075
 20
4206.8371806705017661
 30
0.0
 10
-2194.9360517022673776
 20
4186.566391757753081
 30
0.0
 10
-2193.2468192928722601
 20
4156.1602083886291439
 30
0.0
 10
-2187.3345058599866206
 20
4130.821722247692378
 30
0.0
 10
-2194.0914354975698188
 20
4131.6663384523908462
 30
0.0
  0
SPLINE
  5
D4
  8
Steine
 62
256
370
-1
  6
ByLayer
100
AcDbEntity
100
AcDbSpline
 70
8
 71
3
 72
16
 73
12
 74
0
 40
0.0
 40
0.0
 40
0.0
 40
0.0
 40
0.1111111111111111
 40
0.2222222222222222
 40
0.3333333333333333
 40
0.4444444444444444
 40
0.5555555555555556
 40
0.6666666666666666
 40
0.7777777777777777
 40
0.8888888888888888
 40
1.0
 40
1.0
 40
1.0
 40
1.0
 10
-2377.3731519170110005
 20
4287.0757201168016763
 30
0.0
 10
-2406.9347190814373789
 20
4262.5818501805624692
 30
0.0
 10
-2439.8747510646549017
 20
4285.3864877074065589
 30
0.0
 10
-2439.8747510646549017
 20
4257.5141529523752979
 30
0.0
 10
-2463.5240047961956407
 20
4279.4741742745209194
 30
0.0
 10
-2467.7470858196852532
 20
4325.0834493282072799
 30
0.0
 10
-2434.8070538364677304
 20
4322.5496007141127848
 30
0.0
 10
-2389.19777878278137
 20
4325.9280655329048386
 30
0.0
 10
-2377.3731519170110005
 20
4324.2388331235088117
 30
0.0
 10
-2379.0623843264070274
 20
4300.5895793919680727
 30
0.0
 10
-2367.2377574606366579
 20
4296.3664983684784602
 30
0.0
 10
-2376.5285357123134418
 20
4288.7649525261967938
 30
0.0
  0
SPLINE
  5
D5
  8
Steine
 62
256
370
-1
  6
ByLayer
100
AcDbEntity
100
AcDbSpline
 70
8
 71
3
 72
13
 73
9
 74
0
 40
0.0
 40
0.0
 40
0.0
 40
0.0
 40
0.1666666666666667
 40
0.3333333333333333
 40
0.5
 40
0.6666666666666666
 40
0.8333333333333333
 40
1.0
 40
1.0
 40
1.0
 40
1.0
 10
-2455.077842749217325
 20
3947.5400058282507416
 30
0.0
 10
-2368.9269898700326848
 20
4014.2646859993838007
 30
0.0
 10
-2405.245486672041352
 20
4107.1724685161516391
 30
0.0
 10
-2485.4840261183412622
 20
4082.6785985799128866
 30
0.0
 10
-2433.1178214270721583
 20
4032.8462425027378231
 30
0.0
 10
-2462.679388591498082
 20
3994.8385132913322195
 30
0.0
 10
-2469.4363182290812802
 20
3965.2769461269067506
 30
0.0
 10
-2459.3009237727060281
 20
3945.006157214157156
 30
0.0
 10
-2455.9224589539148838
 20
3946.6953896235531829
 30
0.0
  0
SPLINE
  5
D6
  8
Steine
 62
256
370
-1
  6
ByLayer
100
AcDbEntity
100
AcDbSpline
 70
8
 71
3
 72
17
 73
13
 74
0
 40
0.0
 40
0.0
 40
0.0
 40
0.0
 40
0.1
 40
0.2
 40
0.3
 40
0.4
 40
0.5
 40
0.6000000000000001
 40
0.7000000000000001
 40
0.8
 40
0.9
 40
1.0
 40
1.0
 40
1.0
 40
1.0
 10
-2341.899271319699892
 20
4163.7617542309108103
 30
0.0
 10
-2376.5285357123134418
 20
4186.566391757753081
 30
0.0
 10
-2390.8870111921773969
 20
4219.5064237409706038
 30
0.0
 10
-2399.333173239156622
 20
4247.3787584960009553
 30
0.0
 10
-2395.1100922156670094
 20
4267.6495474087505499
 30
0.0
 10
-2364.7039088465430723
 20
4291.2988011402912889
 30
0.0
 10
-2346.9669685478870633
 20
4300.5895793919680727
 30
0.0
 10
-2317.4054013834615944
 20
4246.5341422913033966
 30
0.0
 10
-2293.7561476519208554
 20
4225.4187371738562433
 30
0.0
 10
-2335.1423416821166938
 20
4209.3710292845962613
 30
0.0
 10
-2339.3654227056063064
 20
4191.6340889859402523
 30
0.0
 10
-2334.2977254774191351
 20
4163.7617542309099008
 30
0.0
 10
-2341.0546551150023333
 20
4163.7617542309099008
 30
0.0
  0
SPLINE
  5
D7
  8
Steine
 62
256
370
-1
  6
ByLayer
100
AcDbEntity
100
AcDbSpline
 70
8
 71
3
 72
15
 73
11
 74
0
 40
0.0
 40
0.0
 40
0.0
 40
0.0
 40
0.125
 40
0.25
 40
0.375
 40
0.5
 40
0.625
 40
0.75
 40
0.875
 40
1.0
 40
1.0
 40
1.0
 40
1.0
 10
-2334.2977254774191351
 20
4162.0725218215138739
 30
0.0
 10
-2336.8315740915127208
 20
4195.8571700094298649
 30
0.0
 10
-2308.1146231317848105
 20
4216.1279589221794595
 30
0.0
 10
-2281.0869045814520177
 20
4241.4664450631153159
 30
0.0
 10
-2249.8361050076305219
 20
4252.4464557241881266
 30
0.0
 10
-2234.6330133230680985
 20
4217.8171913315745769
 30
0.0
 10
-2243.0791753700473237
 20
4197.5464024188258918
 30
0.0
 10
-2264.194580487494477
 20
4182.343310734264378
 30
0.0
 10
-2273.4853587391712608
 20
4167.1402190497010452
 30
0.0
 10
-2308.9592393364823693
 20
4154.470975979233117
 30
0.0
 10
-2332.6084930680231082
 20
4160.3832894121187564
 30
0.0
  0
SPLINE
  5
D8
  8
Steine
 62
256
370
-1
  6
ByLayer
100
AcDbEntity
100
AcDbSpline
 70
8
 71
3
 72
14
 73
10
 74
0
 40
0.0
 40
0.0
 40
0.0
 40
0.0
 40
0.1428571428571428
 40
0.2857142857142857
 40
0.4285714285714285
 40
0.5714285714285714
 40
0.7142857142857142
 40
0.8571428571428571
 40
1.0
 40
1.0
 40
1.0
 40
1.0
 10
-2426.3608917894885053
 20
4091.9693768315896705
 30
0.0
 10
-2385.8193139639902256
 20
4059.8739610530697064
 30
0.0
 10
-2349.500817161980649
 20
4073.3878203282365575
 30
0.0
 10
-2342.7438875243983603
 20
4113.0847819490372785
 30
0.0
 10
-2373.9946870982198561
 20
4132.5109546570884049
 30
0.0
 10
-2402.7116380579477664
 20
4129.9771060429948193
 30
0.0
 10
-2423.8270431753949197
 20
4132.5109546570884049
 30
0.0
 10
-2428.0501241988845322
 20
4110.5509333349436929
 30
0.0
 10
-2428.0501241988845322
 20
4098.7263064691724139
 30
0.0
 10
-2424.6716593800933879
 20
4091.1247606268921118
 30
0.0
  0
SPLINE
  5
D9
  8
Steine
 62
256
370
-1
  6
ByLayer
100
AcDbEntity
100
AcDbSpline
 70
8
 71
3
 72
18
 73
14
 74
0
 40
0.0
 40
0.0
 40
0.0
 40
0.0
 40
0.0909090909090909
 40
0.1818181818181818
 40
0.2727272727272727
 40
0.3636363636363636
 40
0.4545454545454546
 40
0.5454545454545454
 40
0.6363636363636364
 40
0.7272727272727273
 40
0.8181818181818182
 40
0.9090909090909092
 40
1.0
 40
1.0
 40
1.0
 40
1.0
 10
-2299.6684610848055854
 20
4079.3001337611212875
 30
0.0
 10
-2342.7438875243983603
 20
4097.8816902644748552
 30
0.0
 10
-2354.5685143901687297
 20
4122.3755602007131529
 30
0.0
 10
-2359.636211618355901
 20
4137.5786518852755762
 30
0.0
 10
-2353.7238981854702615
 20
4155.3155921839315852
 30
0.0
 10
-2335.9869578868151621
 20
4158.694057002723639
 30
0.0
 10
-2314.8715527693680087
 20
4154.470975979233117
 30
0.0
 10
-2292.0669152425248285
 20
4157.8494407980251708
 30
0.0
 10
-2273.4853587391712608
 20
4161.2279056168163152
 30
0.0
 10
-2262.5053480780984501
 20
4157.8494407980251708
 30
0.0
 10
-2259.9714994640048644
 20
4129.9771060429939098
 30
0.0
 10
-2272.6407425344737021
 20
4108.861700925547666
 30
0.0
 10
-2287.8438342190352159
 20
4088.5909120127985261
 30
0.0
 10
-2299.6684610848055854
 20
4080.144749965819301
 30
0.0
  0
SPLINE
  5
DA
  8
Steine
 62
256
370
-1
  6
ByLayer
100
AcDbEntity
100
AcDbSpline
 70
8
 71
3
 72
18
 73
14
 74
0
 40
0.0
 40
0.0
 40
0.0
 40
0.0
 40
0.0909090909090909
 40
0.1818181818181818
 40
0.2727272727272727
 40
0.3636363636363636
 40
0.4545454545454546
 40
0.5454545454545454
 40
0.6363636363636364
 40
0.7272727272727273
 40
0.8181818181818182
 40
0.9090909090909092
 40
1.0
 40
1.0
 40
1.0
 40
1.0
 10
-2232.9437809136729811
 20
4045.515485573206206
 30
0.0
 10
-2248.1468725982344949
 20
4079.3001337611212875
 30
0.0
 10
-2268.4176615109840895
 20
4093.6586092409852426
 30
0.0
 10
-2270.1068939203801165
 20
4113.0847819490372785
 30
0.0
 10
-2261.6607318734008913
 20
4125.7540250195052067
 30
0.0
 10
-2257.4376508499112788
 20
4145.1801977275572426
 30
0.0
 10
-2246.457640188838468
 20
4149.4032787510459457
 30
0.0
 10
-2224.497618866693756
 20
4136.7340356805780175
 30
0.0
 10
-2204.2268299539441614
 20
4132.5109546570884049
 30
0.0
 10
-2182.2668086317994494
 20
4118.1524791772244498
 30
0.0
 10
-2189.8683544740802063
 20
4102.1047712879644678
 30
0.0
 10
-2209.2945271821313327
 20
4054.8062638248825351
 30
0.0
 10
-2222.8083864572977291
 20
4043.8262531638101791
 30
0.0
 10
-2232.0991647089745129
 20
4044.6708693685077378
 30
0.0
  0
SPLINE
  5
DB
  8
Steine
 62
256
370
-1
  6
ByLayer
100
AcDbEntity
100
AcDbSpline
 70
8
 71
3
 72
17
 73
13
 74
0
 40
0.0
 40
0.0
 40
0.0
 40
0.0
 40
0.1
 40
0.2
 40
0.3
 40
0.4
 40
0.5
 40
0.6000000000000001
 40
0.7000000000000001
 40
0.8
 40
0.9
 40
1.0
 40
1.0
 40
1.0
 40
1.0
 10
-2351.1900495713766759
 20
3974.5677243785830797
 30
0.0
 10
-2342.7438875243983603
 20
4015.1093022040818141
 30
0.0
 10
-2340.2100389103047746
 20
4043.8262531638101791
 30
0.0
 10
-2335.9869578868151621
 20
4056.495496234278562
 30
0.0
 10
-2340.2100389103047746
 20
4082.6785985799133414
 30
0.0
 10
-2363.0146764371470454
 20
4067.4755068953509181
 30
0.0
 10
-2379.9070005311054956
 20
4062.4078096671642015
 30
0.0
 10
-2388.3531625780838112
 20
4037.9139397309249944
 30
0.0
 10
-2395.9547084203645682
 20
4014.2646859993838007
 30
0.0
 10
-2394.2654760109694507
 20
4010.8862211805926563
 30
0.0
 10
-2391.7316273968758651
 20
3984.7031188349583317
 30
0.0
 10
-2378.2177681217094687
 20
3976.2569567879791066
 30
0.0
 10
-2356.2577467995643019
 20
3972.8784919691879622
 30
0.0
  0
SPLINE
  5
DC
  8
Steine
 62
256
370
-1
  6
ByLayer
100
AcDbEntity
100
AcDbSpline
 70
8
 71
3
 72
17
 73
13
 74
0
 40
0.0
 40
0.0
 40
0.0
 40
0.0
 40
0.1
 40
0.2
 40
0.3
 40
0.4
 40
0.5
 40
0.6000000000000001
 40
0.7000000000000001
 40
0.8
 40
0.9
 40
1.0
 40
1.0
 40
1.0
 40
1.0
 10
-2533.9640889654442617
 20
4211.2485269759536095
 30
0.0
 10
-2565.6371966416149917
 20
4213.8879526156342763
 30
0.0
 10
-2588.0723145789029331
 20
4207.2893885164321546
 30
0.0
 10
-2590.7117402185835999
 20
4228.4047936338793079
 30
0.0
 10
-2578.8343248400192351
 20
4250.8399115711672493
 30
0.0
 10
-2572.2357607408171134
 20
4267.9961782290929477
 30
0.0
 10
-2556.3992069027317484
 20
4267.9961782290929477
 30
0.0
 10
-2530.0049505059228068
 20
4275.9144551481358576
 30
0.0
 10
-2522.0866735868798969
 20
4269.3158910489328264
 30
0.0
 10
-2520.7669607670395635
 20
4240.2822090124427632
 30
0.0
 10
-2511.5289710281563202
 20
4204.6499628767505783
 30
0.0
 10
-2522.0866735868798969
 20
4207.2893885164321546
 30
0.0
 10
-2532.6443761456034736
 20
4209.9288141561128214
 30
0.0
  0
SPLINE
  5
DD
  8
Steine
 62
256
370
-1
  6
ByLayer
100
AcDbEntity
100
AcDbSpline
 70
8
 71
3
 72
17
 73
13
 74
0
 40
0.0
 40
0.0
 40
0.0
 40
0.0
 40
0.1
 40
0.2
 40
0.3
 40
0.4
 40
0.5
 40
0.6000000000000001
 40
0.7000000000000001
 40
0.8
 40
0.9
 40
1.0
 40
1.0
 40
1.0
 40
1.0
 10
-2448.1827556758144055
 20
4323.4241166623924073
 30
0.0
 10
-2449.5024684956547389
 20
4328.7029679417537409
 30
0.0
 10
-2446.8630428559740722
 20
4333.9818192211150745
 30
0.0
 10
-2437.6250531170908289
 20
4333.9818192211150745
 30
0.0
 10
-2427.0673505583672522
 20
4340.5803833203181057
 30
0.0
 10
-2423.1082120988457973
 20
4363.0155012576051377
 30
0.0
 10
-2409.9110839004410991
 20
4373.5732038163296238
 30
0.0
 10
-2379.5576890441111573
 20
4365.6549268972867139
 30
0.0
 10
-2366.3605608457064591
 20
4356.4169371584030159
 30
0.0
 10
-2387.4759659631536124
 20
4330.022680761594529
 30
0.0
 10
-2412.5505095401222206
 20
4330.022680761594529
 30
0.0
 10
-2436.3053402972504955
 20
4327.3832551219129527
 30
0.0
 10
-2449.5024684956547389
 20
4323.4241166623924073
 30
0.0
  0
SPLINE
  5
DE
  8
Steine
 62
256
370
-1
  6
ByLayer
100
AcDbEntity
100
AcDbSpline
 70
8
 71
3
 72
18
 73
14
 74
0
 40
0.0
 40
0.0
 40
0.0
 40
0.0
 40
0.0909090909090909
 40
0.1818181818181818
 40
0.2727272727272727
 40
0.3636363636363636
 40
0.4545454545454546
 40
0.5454545454545454
 40
0.6363636363636364
 40
0.7272727272727273
 40
0.8181818181818182
 40
0.9090909090909092
 40
1.0
 40
1.0
 40
1.0
 40
1.0
 10
-2371.6394121250682474
 20
4303.6284243647851326
 30
0.0
 10
-2378.2379762242703691
 20
4330.022680761594529
 30
0.0
 10
-2378.2379762242703691
 20
4339.2606705004773175
 30
0.0
 10
-2372.9591249449085808
 20
4343.2198089599987725
 30
0.0
 10
-2372.9591249449085808
 20
4361.695788437765259
 30
0.0
 10
-2359.7619967465038826
 20
4366.9746397171275021
 30
0.0
 10
-2337.3268788092163959
 20
4364.3352140774459258
 30
0.0
 10
-2338.6465916290567293
 20
4359.0563627980845922
 30
0.0
 10
-2346.5648685480996392
 20
4340.5803833203181057
 30
0.0
 10
-2351.8437198274614275
 20
4328.7029679417537409
 30
0.0
 10
-2347.8845813679399726
 20
4311.5467012838280425
 30
0.0
 10
-2353.1634326473017609
 20
4304.9481371846250113
 30
0.0
 10
-2363.7211352060253375
 20
4294.3904346259023441
 30
0.0
 10
-2370.3196993052274593
 20
4300.9889987251044658
 30
0.0
  0
SPLINE
  5
DF
  8
Steine
 62
256
370
-1
  6
ByLayer
100
AcDbEntity
100
AcDbSpline
 70
8
 71
3
 72
22
 73
18
 74
0
 40
0.0
 40
0.0
 40
0.0
 40
0.0
 40
0.0666666666666667
 40
0.1333333333333333
 40
0.2
 40
0.2666666666666667
 40
0.3333333333333333
 40
0.4
 40
0.4666666666666667
 40
0.5333333333333333
 40
0.6
 40
0.6666666666666666
 40
0.7333333333333333
 40
0.8
 40
0.8666666666666667
 40
0.9333333333333333
 40
1.0
 40
1.0
 40
1.0
 40
1.0
 10
-2332.7870667089678136
 20
4332.936606667812157
 30
0.0
 10
-2339.5439963465510118
 20
4343.7476940879450922
 30
0.0
 10
-2339.5439963465510118
 20
4352.5317026168031589
 30
0.0
 10
-2334.1384526364845442
 20
4361.9914041094198183
 30
0.0
 10
-2325.3544441076264775
 20
4360.6400181819026329
 30
0.0
 10
-2312.5162777962186738
 20
4350.5046237255282904
 30
0.0
 10
-2292.9211818472272171
 20
4346.4504659429785534
 30
0.0
 10
-2284.1371733183691504
 20
4336.990764450361894
 30
0.0
 10
-2259.8122266230698187
 20
4322.1255192476783122
 30
0.0
 10
-2251.028218094211752
 20
4313.341510718821155
 30
0.0
 10
-2234.8115869640123492
 20
4297.8005725523798901
 30
0.0
 10
-2226.7032713989124204
 20
4276.1783977121140197
 30
0.0
 10
-2253.0552969854866205
 20
4291.7193358785552846
 30
0.0
 10
-2266.5691562606530169
 20
4293.0707218060715604
 30
0.0
 10
-2282.1100944270942819
 20
4307.2602740449965495
 30
0.0
 10
-2305.7593481586354756
 20
4318.7470544288871679
 30
0.0
 10
-2324.6787511438683396
 20
4324.8282911027126829
 30
0.0
 10
-2332.7870667089678136
 20
4331.5852207402949716
 30
0.0
  0
SPLINE
  5
E0
  8
Steine
 62
256
370
-1
  6
ByLayer
100
AcDbEntity
100
AcDbSpline
 70
8
 71
3
 72
22
 73
18
 74
0
 40
0.0
 40
0.0
 40
0.0
 40
0.0
 40
0.0666666666666667
 40
0.1333333333333333
 40
0.2
 40
0.2666666666666667
 40
0.3333333333333333
 40
0.4
 40
0.4666666666666667
 40
0.5333333333333333
 40
0.6
 40
0.6666666666666666
 40
0.7333333333333333
 40
0.8
 40
0.8666666666666667
 40
0.9333333333333333
 40
1.0
 40
1.0
 40
1.0
 40
1.0
 10
-2261.1636125505865493
 20
4251.8534510168137786
 30
0.0
 10
-2259.1365336593116808
 20
4264.6916173282224918
 30
0.0
 10
-2256.4337618042786744
 20
4278.2054766033888882
 30
0.0
 10
-2244.2712884566285538
 20
4280.2325554946637567
 30
0.0
 10
-2232.1088151089793428
 20
4280.2325554946637567
 30
0.0
 10
-2221.9734206526040907
 20
4281.5839414221800325
 30
0.0
 10
-2213.189412123746024
 20
4270.7728540020470973
 30
0.0
 10
-2199.6755528485800824
 20
4249.1506791617812269
 30
0.0
 10
-2191.5672372834801536
 20
4228.8798902490316323
 30
0.0
 10
-2184.1346146821388174
 20
4209.960487263799223
 30
0.0
 10
-2187.5130795009304165
 20
4191.0410842785659042
 30
0.0
 10
-2200.3512458123382203
 20
4191.0410842785659042
 30
0.0
 10
-2215.8921839787794852
 20
4194.4195490973579581
 30
0.0
 10
-2233.4602010364956186
 20
4203.879250589973708
 30
0.0
 10
-2236.8386658552872177
 20
4214.01464504634896
 30
0.0
 10
-2236.8386658552872177
 20
4230.2312761765479081
 30
0.0
 10
-2245.6226743841452844
 20
4241.718056560439436
 30
0.0
 10
-2260.4879195868284114
 20
4249.82637212553891
 30
0.0
  0
SPLINE
  5
E1
  8
Steine
 62
256
370
-1
  6
ByLayer
100
AcDbEntity
100
AcDbSpline
 70
8
 71
3
 72
17
 73
13
 74
0
 40
0.0
 40
0.0
 40
0.0
 40
0.0
 40
0.1
 40
0.2
 40
0.3
 40
0.4
 40
0.5
 40
0.6000000000000001
 40
0.7000000000000001
 40
0.8
 40
0.9
 40
1.0
 40
1.0
 40
1.0
 40
1.0
 10
-2267.2448492244125191
 20
4001.1713614624836737
 30
0.0
 10
-2259.812226623071183
 20
4020.0907644477165377
 30
0.0
 10
-2245.6226743841466487
 20
4041.7129392879824081
 30
0.0
 10
-2246.9740603116629245
 20
4041.7129392879824081
 30
0.0
 10
-2228.0546573264305152
 20
4042.3886322517405461
 30
0.0
 10
-2213.8651050875055262
 20
4041.7129392879824081
 30
0.0
 10
-2209.8109473049557891
 20
4021.4421503752328135
 30
0.0
 10
-2213.1894121237473883
 20
4005.9012122087915486
 30
0.0
 10
-2226.7032713989137847
 20
3988.3331951510754152
 30
0.0
 10
-2257.7851477317963145
 20
3966.7110203108095448
 30
0.0
 10
-2273.3260858982375794
 20
3976.8464147671843421
 30
0.0
 10
-2274.67747182575431
 20
3998.4685896074502125
 30
0.0
 10
-2267.2448492244125191
 20
4002.5227473899999495
 30
0.0
  0
SPLINE
  5
E2
  8
Steine
 62
256
370
-1
  6
ByLayer
100
AcDbEntity
100
AcDbSpline
 70
8
 71
3
 72
19
 73
15
 74
0
 40
0.0
 40
0.0
 40
0.0
 40
0.0
 40
0.0833333333333333
 40
0.1666666666666667
 40
0.25
 40
0.3333333333333333
 40
0.4166666666666666
 40
0.5
 40
0.5833333333333333
 40
0.6666666666666666
 40
0.75
 40
0.8333333333333333
 40
0.9166666666666666
 40
1.0
 40
1.0
 40
1.0
 40
1.0
 10
-2425.3570027438586294
 20
3913.3312761739025518
 30
0.0
 10
-2436.8437831277501573
 20
3945.0888454705432196
 30
0.0
 10
-2423.3299238525837609
 20
3974.1436429121508809
 30
0.0
 10
-2412.5188364324503709
 20
3985.6304232960424088
 30
0.0
 10
-2401.7077490123174357
 20
3985.6304232960424088
 30
0.0
 10
-2381.4369600995678411
 20
3978.8734936584592106
 30
0.0
 10
-2365.2203289693684383
 20
3970.7651780933592818
 30
0.0
 10
-2345.6252330203774363
 20
3968.0624062383262753
 30
0.0
 10
-2340.219689310310514
 20
3956.5756258544347475
 30
0.0
 10
-2336.165531527760777
 20
3937.6562228692018834
 30
0.0
 10
-2336.8412244915193696
 20
3925.4937495215522176
 30
0.0
 10
-2347.6523119116523048
 20
3918.7368198839690194
 30
0.0
 10
-2375.3557234257432356
 20
3909.2771183913528148
 30
0.0
 10
-2415.89730125124197
 20
3908.6014254275942221
 30
0.0
 10
-2426.7083886713749052
 20
3912.6555832101439591
 30
0.0
  0
SPLINE
  5
E3
  8
Steine
 62
256
370
-1
  6
ByLayer
100
AcDbEntity
100
AcDbSpline
 70
8
 71
3
 72
17
 73
13
 74
0
 40
0.0
 40
0.0
 40
0.0
 40
0.0
 40
0.1
 40
0.2
 40
0.3
 40
0.4
 40
0.5
 40
0.6000000000000001
 40
0.7000000000000001
 40
0.8
 40
0.9
 40
1.0
 40
1.0
 40
1.0
 40
1.0
 10
-2332.1113737452110399
 20
3924.8180565577940797
 30
0.0
 10
-2334.8141456002440464
 20
3955.8999328906761548
 30
0.0
 10
-2326.0301370713859797
 20
3970.0894851296011439
 30
0.0
 10
-2313.1919707599781759
 20
3980.2248795859759412
 30
0.0
 10
-2296.2996466660201804
 20
3984.2790373685256782
 30
0.0
 10
-2280.7587084995789155
 20
3986.9818092235586846
 30
0.0
 10
-2269.2719281156873876
 20
3980.9005725497340791
 30
0.0
 10
-2262.5149984781041894
 20
3965.3596343832928142
 30
0.0
 10
-2267.2448492244125191
 20
3955.2242399269180169
 30
0.0
 10
-2280.7587084995789155
 20
3946.4402313980599502
 30
0.0
 10
-2302.380883339844786
 20
3933.6020650866521464
 30
0.0
 10
-2318.5975144700446435
 20
3927.5208284128270861
 30
0.0
 10
-2332.1113737452110399
 20
3922.7909776665187565
 30
0.0
  0
SPLINE
  5
E4
  8
Steine
 62
256
370
-1
  6
ByLayer
100
AcDbEntity
100
AcDbSpline
 70
8
 71
3
 72
19
 73
15
 74
0
 40
0.0
 40
0.0
 40
0.0
 40
0.0
 40
0.0833333333333333
 40
0.1666666666666667
 40
0.25
 40
0.3333333333333333
 40
0.4166666666666666
 40
0.5
 40
0.5833333333333333
 40
0.6666666666666666
 40
0.75
 40
0.8333333333333333
 40
0.9166666666666666
 40
1.0
 40
1.0
 40
1.0
 40
1.0
 10
-2608.4697959223635735
 20
4021.4421503752369063
 30
0.0
 10
-2605.7670240673301123
 20
4046.4427900342948305
 30
0.0
 10
-2596.3073225747139077
 20
4059.9566493094612269
 30
0.0
 10
-2582.7934632995475113
 20
4076.8489734034192224
 30
0.0
 10
-2574.6851477344475825
 20
4079.5517452584522289
 30
0.0
 10
-2552.3872799304231194
 20
4075.4975874759024919
 30
0.0
 10
-2529.4137191626405183
 20
4075.4975874759024919
 30
0.0
 10
-2520.6297106337824516
 20
4076.1732804396606298
 30
0.0
 10
-2515.8998598874745767
 20
4050.4969478168445676
 30
0.0
 10
-2525.3595613800907813
 20
4022.1178433389954989
 30
0.0
 10
-2538.873420655256723
 20
4007.9282911000709646
 30
0.0
 10
-2565.9011392055895158
 20
4026.8476940853038286
 30
0.0
 10
-2583.4691562633056492
 20
4014.6852207376537081
 30
0.0
 10
-2601.7128662847803753
 20
4014.6852207376537081
 30
0.0
 10
-2607.7941029586049808
 20
4020.0907644477206304
 30
0.0
  0
SPLINE
  5
E5
  8
Steine
 62
256
370
-1
  6
ByLayer
100
AcDbEntity
100
AcDbSpline
 70
8
 71
3
 72
16
 73
12
 74
0
 40
0.0
 40
0.0
 40
0.0
 40
0.0
 40
0.1111111111111111
 40
0.2222222222222222
 40
0.3333333333333333
 40
0.4444444444444444
 40
0.5555555555555556
 40
0.6666666666666666
 40
0.7777777777777777
 40
0.8888888888888888
 40
1.0
 40
1.0
 40
1.0
 40
1.0
 10
-2451.6993779304252712
 20
4090.2801444221940983
 30
0.0
 10
-2432.2732052223741448
 20
4102.1047712879644678
 30
0.0
 10
-2428.8947404035820909
 20
4113.0847819490372785
 30
0.0
 10
-2426.3608917894885053
 20
4136.7340356805780175
 30
0.0
 10
-2437.3409024505613161
 20
4146.0248139322548013
 30
0.0
 10
-2460.1455399774044963
 20
4171.3633000731915672
 30
0.0
 10
-2482.1055612995492083
 20
4161.2279056168163152
 30
0.0
 10
-2480.3307767224937379
 20
4119.0675234842874488
 30
0.0
 10
-2498.9978853935067491
 20
4097.8816902644748552
 30
0.0
 10
-2477.0378640713620371
 20
4080.9893661705173145
 30
0.0
 10
-2464.3686210008941089
 20
4087.7462958081005127
 30
0.0
 10
-2453.3886103398212981
 20
4090.2801444221940983
 30
0.0
  0
SPLINE
  5
E6
  8
Steine
 62
256
370
-1
  6
ByLayer
100
AcDbEntity
100
AcDbSpline
 70
8
 71
3
 72
12
 73
8
 74
0
 40
0.0
 40
0.0
 40
0.0
 40
0.0
 40
0.2
 40
0.4
 40
0.6000000000000001
 40
0.8
 40
1.0
 40
1.0
 40
1.0
 40
1.0
 10
-2527.7148363532351141
 20
4004.1292915430094581
 30
0.0
 10
-2509.9778960545795599
 20
4091.1247606268921118
 30
0.0
 10
-2466.9024696149876945
 20
4072.5432041235385441
 30
0.0
 10
-2440.3307767224937379
 20
4019.0675234842874488
 30
0.0
 10
-2488.8624909371324065
 20
3966.1215623316043093
 30
0.0
 10
-2526.0256039438395419
 20
3951.7630868517403542
 30
0.0
 10
-2532.7825335814227401
 20
3983.0138864255623048
 30
0.0
 10
-2528.5594525579331275
 20
4000.750826724217859
 30
0.0
  0
SPLINE
  5
E7
  8
Steine
 62
256
370
-1
  6
ByLayer
100
AcDbEntity
100
AcDbSpline
 70
8
 71
3
 72
23
 73
19
 74
0
 40
0.0
 40
0.0
 40
0.0
 40
0.0
 40
0.0625
 40
0.125
 40
0.1875
 40
0.25
 40
0.3125
 40
0.375
 40
0.4375
 40
0.5
 40
0.5625
 40
0.625
 40
0.6875
 40
0.75
 40
0.8125
 40
0.875
 40
0.9375
 40
1.0
 40
1.0
 40
1.0
 40
1.0
 10
-2444.0978320881445143
 20
4175.5863810966802703
 30
0.0
 10
-2472.8147830478724245
 20
4167.1402190497019546
 30
0.0
 10
-2490.3307767224937379
 20
4179.0675234842874488
 30
0.0
 10
-2508.2886636451835329
 20
4189.9448565765451349
 30
0.0
 10
-2511.6671284639755868
 20
4219.5064237409706038
 30
0.0
 10
-2516.7348256921627581
 20
4244.8449098819073697
 30
0.0
 10
-2514.2009770780691724
 20
4270.1833960228441356
 30
0.0
 10
-2510.8225122592780281
 20
4276.9403256604273338
 30
0.0
 10
-2490.3307767224937379
 20
4279.0675234842874488
 30
0.0
 10
-2480.3307767224937379
 20
4309.0675234842874488
 30
0.0
 10
-2460.990156182102055
 20
4272.7172446369377212
 30
0.0
 10
-2459.3009237727060281
 20
4271.0280122275416943
 30
0.0
 10
-2433.9624376317701717
 20
4261.73723397586582
 30
0.0
 10
-2442.4085996787484873
 20
4255.8249205429801805
 30
0.0
 10
-2448.3209131116341268
 20
4231.3310506067409733
 30
0.0
 10
-2452.5439941351237394
 20
4208.5264130798987026
 30
0.0
 10
-2446.6316807022380999
 20
4194.167937600033838
 30
0.0
 10
-2444.0978320881445143
 20
4181.4986945295659098
 30
0.0
 10
-2443.2532158834469556
 20
4173.8971486872851528
 30
0.0
  0
SPLINE
  5
E8
  8
Steine
 62
256
370
-1
  6
ByLayer
100
AcDbEntity
100
AcDbSpline
 70
8
 71
3
 72
20
 73
16
 74
0
 40
0.0
 40
0.0
 40
0.0
 40
0.0
 40
0.0769230769230769
 40
0.1538461538461539
 40
0.2307692307692308
 40
0.3076923076923077
 40
0.3846153846153846
 40
0.4615384615384616
 40
0.5384615384615385
 40
0.6153846153846154
 40
0.6923076923076923
 40
0.7692307692307693
 40
0.8461538461538463
 40
0.9230769230769231
 40
1.0
 40
1.0
 40
1.0
 40
1.0
 10
-2634.3913977797578809
 20
4194.3765966380269674
 30
0.0
 10
-2663.16003072597141
 20
4232.9475821166797687
 30
0.0
 10
-2618.7403289714961829
 20
4238.6098689271766489
 30
0.0
 10
-2621.6454550326593562
 20
4284.14889213843162
 30
0.0
 10
-2599.8209259862633189
 20
4270.5025768165696718
 30
0.0
 10
-2587.388175453110307
 20
4274.8270117846223002
 30
0.0
 10
-2583.0637404850572239
 20
4268.3403593325429028
 30
0.0
 10
-2573.3337618069372184
 20
4255.9076087993898909
 30
0.0
 10
-2584.6854035980773006
 20
4247.7992932342895074
 30
0.0
 10
-2588.4692841951236915
 20
4229.4204446200637904
 30
0.0
 10
-2592.7937191631767746
 20
4209.9604872638246889
 30
0.0
 10
-2590.6315016791500057
 20
4199.6899542146975364
 30
0.0
 10
-2601.9831434702900879
 20
4198.6088454726841519
 30
0.0
 10
-2619.2808833425028752
 20
4191.0410842785913701
 30
0.0
 10
-2632.7947426176692716
 20
4188.3383124235579089
 30
0.0
 10
-2634.4164057306893483
 20
4194.2844105046315235
 30
0.0
  0
SPLINE
  5
E9
  8
Steine
 62
256
370
-1
  6
ByLayer
100
AcDbEntity
100
AcDbSpline
 70
8
 71
3
 72
18
 73
14
 74
0
 40
0.0
 40
0.0
 40
0.0
 40
0.0
 40
0.0909090909090909
 40
0.1818181818181818
 40
0.2727272727272727
 40
0.3636363636363636
 40
0.4545454545454546
 40
0.5454545454545454
 40
0.6363636363636364
 40
0.7272727272727273
 40
0.8181818181818182
 40
0.9090909090909092
 40
1.0
 40
1.0
 40
1.0
 40
1.0
 10
-2644.1795667192291148
 20
4110.5244195634404605
 30
0.0
 10
-2673.2619108114558912
 20
4126.0475497065326635
 30
0.0
 10
-2640.9030581827692004
 20
4151.5806151951055654
 30
0.0
 10
-2666.3428148625703216
 20
4196.8990922231205332
 30
0.0
 10
-2629.5514163916295729
 20
4190.5005299075837684
 30
0.0
 10
-2631.1938074422314457
 20
4187.2123578946811904
 30
0.0
 10
-2609.0103502933766322
 20
4193.7438561336239218
 30
0.0
 10
-2609.0103502933766322
 20
4179.1488881164441409
 30
0.0
 10
-2614.4158940034430998
 20
4164.55392009926436
 30
0.0
 10
-2616.0375571164627218
 20
4149.4183977110787964
 30
0.0
 10
-2618.7403289714961829
 20
4128.8773316128263104
 30
0.0
 10
-2626.3080901655894195
 20
4120.7690160477259269
 30
0.0
 10
-2628.308821195512337
 20
4115.6257306246352528
 30
0.0
 10
-2644.3212698042621014
 20
4110.6661226484739018
 30
0.0
  0
SPLINE
  5
EA
  8
Steine
 62
256
370
-1
  6
ByLayer
100
AcDbEntity
100
AcDbSpline
 70
8
 71
3
 72
16
 73
12
 74
0
 40
0.0
 40
0.0
 40
0.0
 40
0.0
 40
0.1111111111111111
 40
0.2222222222222222
 40
0.3333333333333333
 40
0.4444444444444444
 40
0.5555555555555556
 40
0.6666666666666666
 40
0.7777777777777777
 40
0.8888888888888888
 40
1.0
 40
1.0
 40
1.0
 40
1.0
 10
-2643.8695912207654146
 20
4049.0518499875356611
 30
0.0
 10
-2664.4608207646506344
 20
4100.1978072417014118
 30
0.0
 10
-2634.1461285451796357
 20
4114.6877793738849505
 30
0.0
 10
-2625.362120016321569
 20
4114.6877793738849505
 30
0.0
 10
-2616.5781114874635023
 20
4110.633621591334304
 30
0.0
 10
-2606.442717031088705
 20
4103.2009989899934226
 30
0.0
 10
-2588.1990070096139789
 20
4084.9572889685186965
 30
0.0
 10
-2583.4691562633056492
 20
4078.876052294694091
 30
0.0
 10
-2601.7128662847803753
 20
4071.4434296933523001
 30
0.0
 10
-2627.5266865895005139
 20
3970.4543795561680781
 30
0.0
 10
-2634.0903070649142137
 20
4041.174929748255181
 30
0.0
 10
-2643.8724556153620142
 20
4049.0568313121129904
 30
0.0
  0
SPLINE
  5
EB
  8
Steine
 62
256
370
-1
  6
ByLayer
100
AcDbEntity
100
AcDbSpline
 70
8
 71
3
 72
19
 73
15
 74
0
 40
0.0
 40
0.0
 40
0.0
 40
0.0
 40
0.0833333333333333
 40
0.1666666666666667
 40
0.25
 40
0.3333333333333333
 40
0.4166666666666666
 40
0.5
 40
0.5833333333333333
 40
0.6666666666666666
 40
0.75
 40
0.8333333333333333
 40
0.9166666666666666
 40
1.0
 40
1.0
 40
1.0
 40
1.0
 10
-2605.3855795539907376
 20
4004.6174158048611389
 30
0.0
 10
-2588.8746999733725715
 20
4003.1984403537626349
 30
0.0
 10
-2575.3608406982061751
 20
4017.3879925926871692
 30
0.0
 10
-2562.5226743867983714
 20
4021.4421503752369063
 30
0.0
 10
-2548.3331221478733823
 20
4011.9824488826207016
 30
0.0
 10
-2540.2248065827739083
 20
4005.9012122087956413
 30
0.0
 10
-2531.4407980539158416
 20
3993.7387388611459755
 30
0.0
 10
-2533.0810268881050433
 20
3973.1355292374178134
 30
0.0
 10
-2524.6838684163326434
 20
3968.0624062383299133
 30
0.0
 10
-2525.3595613800907813
 20
3950.4943891806137799
 30
0.0
 10
-2543.1137160139933258
 20
3911.5555752923096406
 30
0.0
 10
-2560.4114558862147533
 20
3934.3885919236422524
 30
0.0
 10
-2592.5852520485468631
 20
3940.6157782776417662
 30
0.0
 10
-2621.2995002364341417
 20
4005.3093253997499232
 30
0.0
 10
-2604.6936699591014985
 20
4004.6174158048611389
 30
0.0
  0
SPLINE
  5
EC
  8
Steine
 62
256
370
-1
  6
ByLayer
100
AcDbEntity
100
AcDbSpline
 70
8
 71
3
 72
19
 73
15
 74
0
 40
0.0
 40
0.0
 40
0.0
 40
0.0
 40
0.0833333333333333
 40
0.1666666666666667
 40
0.25
 40
0.3333333333333333
 40
0.4166666666666666
 40
0.5
 40
0.5833333333333333
 40
0.6666666666666666
 40
0.75
 40
0.8333333333333333
 40
0.9166666666666666
 40
1.0
 40
1.0
 40
1.0
 40
1.0
 10
-2524.0081754525722317
 20
3939.007608796718614
 30
0.0
 10
-2515.8998598874727577
 20
3951.8457751081264178
 30
0.0
 10
-2501.7103076485482234
 20
3959.2783977094677539
 30
0.0
 10
-2487.520755409623689
 20
3966.7110203108095448
 30
0.0
 10
-2480.0881328082818982
 20
3962.656862528259353
 30
0.0
 10
-2470.6284313156656935
 20
3952.5214680718850104
 30
0.0
 10
-2458.4659579680160277
 20
3941.0346876879934825
 30
0.0
 10
-2441.5736338740580322
 20
3943.737459543026489
 30
0.0
 10
-2431.4382394176832349
 20
3933.6020650866521464
 30
0.0
 10
-2440.8979409102998943
 20
3909.2771183913528148
 30
0.0
 10
-2471.3041242794238315
 20
3915.3583550651774203
 30
0.0
 10
-2504.7127334976844395
 20
3869.0031352066707768
 30
0.0
 10
-2514.3994678261283298
 20
3913.631304077002369
 30
0.0
 10
-2560.7574106836823375
 20
3899.7931121792248632
 30
0.0
 10
-2524.0009490442125752
 20
3939.0772085497101216
 30
0.0
  0
SPLINE
  5
ED
  8
Steine
 62
256
370
-1
  6
ByLayer
100
AcDbEntity
100
AcDbSpline
 70
8
 71
3
 72
16
 73
12
 74
0
 40
0.0
 40
0.0
 40
0.0
 40
0.0
 40
0.1111111111111111
 40
0.2222222222222222
 40
0.3333333333333333
 40
0.4444444444444444
 40
0.5555555555555556
 40
0.6666666666666666
 40
0.7777777777777777
 40
0.8888888888888888
 40
1.0
 40
1.0
 40
1.0
 40
1.0
 10
-2483.8473347769627253
 20
3879.8034115395576009
 30
0.0
 10
-2458.8466951178907038
 20
3907.5068230536644478
 30
0.0
 10
-2432.494669531301497
 20
3910.2095949086988185
 30
0.0
 10
-2396.6829424520910834
 20
3907.5068230536644478
 30
0.0
 10
-2343.9788912789126698
 20
3897.3714285972837388
 30
0.0
 10
-2337.2219616413258336
 20
3877.1006396845227755
 30
0.0
 10
-2339.2490405326016116
 20
3847.3701492791406054
 30
0.0
 10
-2357.4927505540867969
 20
3849.3972281704163834
 30
0.0
 10
-2393.980170597056258
 20
3853.4513859529688489
 30
0.0
 10
-2423.0349680386798354
 20
3856.829850771762267
 30
0.0
 10
-2460.8737740091669366
 20
3863.5867804093491031
 30
0.0
 10
-2483.8473347769627253
 20
3879.1277185757990082
 30
0.0
  0
SPLINE
  5
EE
  8
Steine
 62
256
370
-1
  6
ByLayer
100
AcDbEntity
100
AcDbSpline
 70
8
 71
3
 72
21
 73
17
 74
0
 40
0.0
 40
0.0
 40
0.0
 40
0.0
 40
0.0714285714285714
 40
0.1428571428571428
 40
0.2142857142857143
 40
0.2857142857142857
 40
0.3571428571428571
 40
0.4285714285714285
 40
0.5
 40
0.5714285714285714
 40
0.6428571428571428
 40
0.7142857142857142
 40
0.7857142857142857
 40
0.8571428571428571
 40
0.9285714285714285
 40
1.0
 40
1.0
 40
1.0
 40
1.0
 10
-2327.0865671849451246
 20
3877.1006396845227755
 30
0.0
 10
-2309.5185501272194415
 20
3855.4784648442446269
 30
0.0
 10
-2285.8692963956650601
 20
3861.5597015180728704
 30
0.0
 10
-2266.9498934104212822
 20
3867.6409381919011139
 30
0.0
 10
-2249.3818763526955991
 20
3872.3707889382121721
 30
0.0
 10
-2231.8138592949694612
 20
3888.5874200684206698
 30
0.0
 10
-2246.6791044976607736
 20
3906.1554371261468077
 30
0.0
 10
-2262.8957356278692714
 20
3908.1825160174230405
 30
0.0
 10
-2276.4095949030433985
 20
3931.1560767852183744
 30
0.0
 10
-2289.2477612144584782
 20
3937.2373134590466179
 30
0.0
 10
-2298.7074627070801398
 20
3931.8317697489774218
 30
0.0
 10
-2319.6539445835996958
 20
3923.0477612201143529
 30
0.0
 10
-2337.2219616413258336
 20
3920.3449893650795275
 30
0.0
 10
-2353.4385927715343314
 20
3912.9123667637336439
 30
0.0
 10
-2346.6816631339474952
 20
3899.3985074885599715
 30
0.0
 10
-2340.6004264601192517
 20
3889.9388059959383099
 30
0.0
 10
-2327.0865671849451246
 20
3877.1006396845227755
 30
0.0
  0
SPLINE
  5
EF
  8
Steine
 62
256
370
-1
  6
ByLayer
100
AcDbEntity
100
AcDbSpline
 70
8
 71
3
 72
20
 73
16
 74
0
 40
0.0
 40
0.0
 40
0.0
 40
0.0
 40
0.0769230769230769
 40
0.1538461538461539
 40
0.2307692307692308
 40
0.3076923076923077
 40
0.3846153846153846
 40
0.4615384615384616
 40
0.5384615384615385
 40
0.6153846153846154
 40
0.6923076923076923
 40
0.7692307692307693
 40
0.8461538461538463
 40
0.9230769230769231
 40
1.0
 40
1.0
 40
1.0
 40
1.0
 10
-2264.9660588688334428
 20
3916.744897254182888
 30
0.0
 10
-2272.5770644126114348
 20
3927.4694959749608643
 30
0.0
 10
-2276.7285219819445956
 20
3937.8481398982944484
 30
0.0
 10
-2274.9987479947226348
 20
3947.1889194292944012
 30
0.0
 10
-2268.4256068432778193
 20
3955.4918345679616323
 30
0.0
 10
-2260.4686465020554351
 20
3962.7568853142947773
 30
0.0
 10
-2244.5547258196106668
 20
3965.5245236938508242
 30
0.0
 10
-2226.5650763524990907
 20
3967.6002524785171772
 30
0.0
 10
-2221.7217091882766908
 20
3961.7190209219616008
 30
0.0
 10
-2212.7268844547211302
 20
3947.1889194292944012
 30
0.0
 10
-2211.6890200623874989
 20
3937.8481398982944484
 30
0.0
 10
-2214.456658441943091
 20
3924.35590279796088
 30
0.0
 10
-2224.4893475678322829
 20
3913.6313040771829037
 30
0.0
 10
-2244.900680617055059
 20
3908.4419821155161117
 30
0.0
 10
-2261.8524656918334585
 20
3913.2853492797380568
 30
0.0
 10
-2264.9660588688334428
 20
3917.0908520516272802
 30
0.0
  0
SPLINE
  5
F0
  8
Steine
 62
256
370
-1
  6
ByLayer
100
AcDbEntity
100
AcDbSpline
 70
8
 71
3
 72
21
 73
17
 74
0
 40
0.0
 40
0.0
 40
0.0
 40
0.0
 40
0.0714285714285714
 40
0.1428571428571428
 40
0.2142857142857143
 40
0.2857142857142857
 40
0.3571428571428571
 40
0.4285714285714285
 40
0.5
 40
0.5714285714285714
 40
0.6428571428571428
 40
0.7142857142857142
 40
0.7857142857142857
 40
0.8571428571428571
 40
0.9285714285714285
 40
1.0
 40
1.0
 40
1.0
 40
1.0
 10
-2231.4084435167214906
 20
3885.9549202816265279
 30
0.0
 10
-2233.8301270988326905
 20
3901.8688409640712962
 30
0.0
 10
-2227.9488955422771141
 20
3911.5555752925160959
 30
0.0
 10
-2219.6459804036098831
 20
3918.4746712414048488
 30
0.0
 10
-2206.845652898165099
 20
3930.5830891519608485
 30
0.0
 10
-2197.8508281646095384
 20
3953.7620605807392167
 30
0.0
 10
-2182.6288170770535544
 20
3961.3730661245172087
 30
0.0
 10
-2170.8663539639424016
 20
3959.2973373398504009
 30
0.0
 10
-2165.3310772048307626
 20
3953.7620605807392167
 30
0.0
 10
-2159.7958004457195784
 20
3938.8860042906276249
 30
0.0
 10
-2164.2932128124975861
 20
3929.545224759627672
 30
0.0
 10
-2172.9420827486087546
 20
3922.2801740132940722
 30
0.0
 10
-2183.6666814693871856
 20
3912.2474848874048803
 30
0.0
 10
-2206.845652898165099
 20
3900.1390669768488806
 30
0.0
 10
-2217.57025161894353
 20
3892.5280614330708886
 30
0.0
 10
-2228.2948503397215063
 20
3884.5711010918485044
 30
0.0
 10
-2231.7543983141658828
 20
3884.9170558892928966
 30
0.0
  0
SPLINE
  5
F1
  8
Steine
 62
256
370
-1
  6
ByLayer
100
AcDbEntity
100
AcDbSpline
 70
8
 71
3
 72
22
 73
18
 74
0
 40
0.0
 40
0.0
 40
0.0
 40
0.0
 40
0.0666666666666667
 40
0.1333333333333333
 40
0.2
 40
0.2666666666666667
 40
0.3333333333333333
 40
0.4
 40
0.4666666666666667
 40
0.5333333333333333
 40
0.6
 40
0.6666666666666666
 40
0.7333333333333333
 40
0.8
 40
0.8666666666666667
 40
0.9333333333333333
 40
1.0
 40
1.0
 40
1.0
 40
1.0
 10
-2210.3052008726099302
 20
3959.6432921372947931
 30
0.0
 10
-2218.2621612138323144
 20
3978.3248511992956082
 30
0.0
 10
-2217.9162064163879222
 20
3993.8928170842959844
 30
0.0
 10
-2213.0728392521655223
 20
4005.309325399962745
 30
0.0
 10
-2202.0022857339431539
 20
4021.5692008798519055
 30
0.0
 10
-2191.6236418106095698
 20
4030.2180708159635287
 30
0.0
 10
-2148.72524692749721
 20
4028.142342031296721
 30
0.0
 10
-2125.5462754987188418
 20
4025.3747036517411289
 30
0.0
 10
-2093.7184341338293052
 20
4025.0287488542967367
 30
0.0
 10
-2103.405168462274105
 20
4009.1148281718515136
 30
0.0
 10
-2124.1624563089412732
 20
3980.0546251865175691
 30
0.0
 10
-2134.5411002322748573
 20
3964.8326140989615851
 30
0.0
 10
-2148.3792921300528178
 20
3959.6432921372947931
 30
0.0
 10
-2157.7200716610532254
 20
3956.875653757739201
 30
0.0
 10
-2172.5961279511643625
 20
3963.7947497066284086
 30
0.0
 10
-2187.1262294438315621
 20
3962.064975719405993
 30
0.0
 10
-2200.9644213416095226
 20
3954.453970175628001
 30
0.0
 10
-2209.267336480276299
 20
3958.9513825424060087
 30
0.0
  0
SPLINE
  5
F2
  8
Steine
 62
256
370
-1
  6
ByLayer
100
AcDbEntity
100
AcDbSpline
 70
8
 71
3
 72
19
 73
15
 74
0
 40
0.0
 40
0.0
 40
0.0
 40
0.0
 40
0.0833333333333333
 40
0.1666666666666667
 40
0.25
 40
0.3333333333333333
 40
0.4166666666666666
 40
0.5
 40
0.5833333333333333
 40
0.6666666666666666
 40
0.75
 40
0.8333333333333333
 40
0.9166666666666666
 40
1.0
 40
1.0
 40
1.0
 40
1.0
 10
-2197.8940725142997508
 20
4028.7261407519972636
 30
0.0
 10
-2207.0834968214180662
 20
4042.7805543981785377
 30
0.0
 10
-2206.5429424504109193
 20
4054.1321961893245316
 30
0.0
 10
-2206.002388079404227
 20
4066.5649467224843647
 30
0.0
 10
-2188.1640938361742883
 20
4091.9710021598116327
 30
0.0
 10
-2174.109680189993469
 20
4102.2415352089437874
 30
0.0
 10
-2162.2174840278403281
 20
4096.2954371278674444
 30
0.0
 10
-2141.1358635585688717
 20
4071.9704904325540156
 30
0.0
 10
-2143.2980810425965501
 20
4055.7538593023455178
 30
0.0
 10
-2147.6225160106523617
 20
4035.2127932040807536
 30
0.0
 10
-2148.1630703816595087
 20
4035.2127932040807536
 30
0.0
 10
-2161.6769296568331811
 20
4032.5100213490459282
 30
0.0
 10
-2180.0557782710702668
 20
4035.2127932040807536
 30
0.0
 10
-2190.8668656912091137
 20
4025.4828145259557459
 30
0.0
 10
-2198.97518125631359
 20
4029.8072494940111028
 30
0.0
  0
SPLINE
  5
F3
  8
Steine
 62
256
370
-1
  6
ByLayer
100
AcDbEntity
100
AcDbSpline
 70
8
 71
3
 72
19
 73
15
 74
0
 40
0.0
 40
0.0
 40
0.0
 40
0.0
 40
0.0833333333333333
 40
0.1666666666666667
 40
0.25
 40
0.3333333333333333
 40
0.4166666666666666
 40
0.5
 40
0.5833333333333333
 40
0.6666666666666666
 40
0.75
 40
0.8333333333333333
 40
0.9166666666666666
 40
1.0
 40
1.0
 40
1.0
 40
1.0
 10
-2135.1897654774925286
 20
4029.8072494940111028
 30
0.0
 10
-2137.892537332527354
 20
4050.3483155922758669
 30
0.0
 10
-2140.0547548165550324
 20
4070.8893816905401764
 30
0.0
 10
-2138.9736460745411932
 20
4082.7815778526933173
 30
0.0
 10
-2135.7303198484992208
 20
4105.4848614349857598
 30
0.0
 10
-2130.865330509436717
 20
4120.6203838231804184
 30
0.0
 10
-2114.1081450082210722
 20
4106.0254158059924521
 30
0.0
 10
-2093.0265245389496158
 20
4096.8359914988741366
 30
0.0
 10
-2078.9721108927683417
 20
4084.9437953367214504
 30
0.0
 10
-2084.3776546028379926
 20
4070.8893816905401764
 30
0.0
 10
-2085.4587633448518318
 20
4055.2133049313383708
 30
0.0
 10
-2093.5670789099563081
 20
4039.5372281721365653
 30
0.0
 10
-2102.2159488460679313
 20
4030.8883582360253968
 30
0.0
 10
-2120.0542430892974153
 20
4027.1044776389762774
 30
0.0
 10
-2136.2708742195063678
 20
4029.2666951230044106
 30
0.0
  0
SPLINE
  5
F4
  8
Steine
 62
256
370
-1
  6
ByLayer
100
AcDbEntity
100
AcDbSpline
 70
8
 71
3
 72
25
 73
21
 74
0
 40
0.0
 40
0.0
 40
0.0
 40
0.0
 40
0.0555555555555556
 40
0.1111111111111111
 40
0.1666666666666667
 40
0.2222222222222222
 40
0.2777777777777778
 40
0.3333333333333333
 40
0.3888888888888888
 40
0.4444444444444444
 40
0.5
 40
0.5555555555555556
 40
0.611111111111111
 40
0.6666666666666666
 40
0.7222222222222222
 40
0.7777777777777777
 40
0.8333333333333333
 40
0.8888888888888888
 40
0.9444444444444444
 40
1.0
 40
1.0
 40
1.0
 40
1.0
 10
-2154.2605236866179439
 20
4102.5226234818674129
 30
0.0
 10
-2144.5737893581731441
 20
4111.86340301286873
 30
0.0
 10
-2132.4653714476175992
 20
4117.3986797719790047
 30
0.0
 10
-2122.7786371191727994
 20
4120.1663181515350516
 30
0.0
 10
-2111.0161740060611919
 20
4115.6689057847570439
 30
0.0
 10
-2104.0970780571719843
 20
4120.8582277464238359
 30
0.0
 10
-2104.4430328546168312
 20
4137.8100128212026902
 30
0.0
 10
-2110.6702192086167997
 20
4149.9184307317582352
 30
0.0
 10
-2120.3569535370615995
 20
4162.0268486423137801
 30
0.0
 10
-2129.005823473172768
 20
4165.4863966167586113
 30
0.0
 10
-2148.0333373326179753
 20
4167.9080801988693565
 30
0.0
 10
-2163.6013032176183515
 20
4165.4863966167586113
 30
0.0
 10
-2176.0556759256187433
 20
4158.5673006678698584
 30
0.0
 10
-2183.3207266719523432
 20
4151.9941595164245882
 30
0.0
 10
-2185.7424102540635431
 20
4133.6585552518681652
 30
0.0
 10
-2185.050500659174304
 20
4124.3177757208686671
 30
0.0
 10
-2183.6666814693967353
 20
4107.0200358486454206
 30
0.0
 10
-2180.2071334949523589
 20
4100.7928494946454521
 30
0.0
 10
-2165.6770320022851593
 20
4100.7928494946454521
 30
0.0
 10
-2156.6822072687291438
 20
4095.9494823304230522
 30
0.0
 10
-2154.6064784840623361
 20
4101.8307138869786286
 30
0.0
  0
SPLINE
  5
F5
  8
Steine
 62
256
370
-1
  6
ByLayer
100
AcDbEntity
100
AcDbSpline
 70
8
 71
3
 72
17
 73
13
 74
0
 40
0.0
 40
0.0
 40
0.0
 40
0.0
 40
0.1
 40
0.2
 40
0.3
 40
0.4
 40
0.5
 40
0.6000000000000001
 40
0.7000000000000001
 40
0.8
 40
0.9
 40
1.0
 40
1.0
 40
1.0
 40
1.0
 10
-2182.488272940609022
 20
4163.5944563182447382
 30
0.0
 10
-2186.5424307231610328
 20
4183.1895522672475636
 30
0.0
 10
-2186.5424307231610328
 20
4204.1360341437666648
 30
0.0
 10
-2181.136887013091382
 20
4229.136673802839141
 30
0.0
 10
-2171.0014925567106729
 20
4237.9206823317017552
 30
0.0
 10
-2153.4334754989845351
 20
4237.9206823317017552
 30
0.0
 10
-2125.0543710211190955
 20
4213.5957356363887811
 30
0.0
 10
-2124.3786780573605029
 20
4196.7034115424212359
 30
0.0
 10
-2129.108528803671561
 20
4181.8381663397303782
 30
0.0
 10
-2143.9737740063628735
 20
4173.7298507746254472
 30
0.0
 10
-2154.7848614265021752
 20
4171.7027718833487597
 30
0.0
 10
-2169.6501066291934876
 20
4162.2430703907275529
 30
0.0
 10
-2183.1639659043676147
 20
4165.6215352095205162
 30
0.0
  0
SPLINE
  5
F6
  8
Steine
 62
256
370
-1
  6
ByLayer
100
AcDbEntity
100
AcDbSpline
 70
8
 71
3
 72
18
 73
14
 74
0
 40
0.0
 40
0.0
 40
0.0
 40
0.0
 40
0.0909090909090909
 40
0.1818181818181818
 40
0.2727272727272727
 40
0.3636363636363636
 40
0.4545454545454546
 40
0.5454545454545454
 40
0.6363636363636364
 40
0.7272727272727273
 40
0.8181818181818182
 40
0.9090909090909092
 40
1.0
 40
1.0
 40
1.0
 40
1.0
 10
-2123.0272921298428628
 20
4168.3243070645557964
 30
0.0
 10
-2124.3786780573605029
 20
4181.8381663397303782
 30
0.0
 10
-2122.3515991660842701
 20
4202.1089552524908868
 30
0.0
 10
-2116.9460554560146193
 20
4227.1095949115624535
 30
0.0
 10
-2102.0808102533233068
 20
4235.2179104766673845
 30
0.0
 10
-2095.9995735794950633
 20
4233.8665245491501992
 30
0.0
 10
-2085.1884861593557616
 20
4215.6228145276654686
 30
0.0
 10
-2081.8100213405623435
 20
4204.1360341437666648
 30
0.0
 10
-2075.7287846667336453
 20
4181.8381663397303782
 30
0.0
 10
-2086.539872086872947
 20
4174.4055437383840399
 30
0.0
 10
-2097.3509595070122487
 20
4171.0270789195910766
 30
0.0
 10
-2111.5405117459449684
 20
4170.3513859558315744
 30
0.0
 10
-2115.5946695284974339
 20
4164.2701492820033309
 30
0.0
 10
-2123.7029850936019102
 20
4169.6756929920729817
 30
0.0
  0
SPLINE
  5
F7
  8
Steine
 62
256
370
-1
  6
ByLayer
100
AcDbEntity
100
AcDbSpline
 70
8
 71
3
 72
18
 73
14
 74
0
 40
0.0
 40
0.0
 40
0.0
 40
0.0
 40
0.0909090909090909
 40
0.1818181818181818
 40
0.2727272727272727
 40
0.3636363636363636
 40
0.4545454545454546
 40
0.5454545454545454
 40
0.6363636363636364
 40
0.7272727272727273
 40
0.8181818181818182
 40
0.9090909090909092
 40
1.0
 40
1.0
 40
1.0
 40
1.0
 10
-2100.0537313620470741
 20
4106.8362473625138591
 30
0.0
 10
-2099.3780383982884814
 20
4129.1341151665510552
 30
0.0
 10
-2102.7565032170818995
 20
4143.3236674054842297
 30
0.0
 10
-2106.1349680358753176
 20
4160.2159914994517749
 30
0.0
 10
-2098.0266524707708413
 20
4167.6486141007972037
 30
0.0
 10
-2082.4857143043209362
 20
4171.0270789195910766
 30
0.0
 10
-2075.0530917029750526
 20
4162.9187633544861455
 30
0.0
 10
-2073.7017057754578673
 20
4148.729211115552971
 30
0.0
 10
-2073.7017057754578673
 20
4135.2153518403792987
 30
0.0
 10
-2075.0530917029750526
 20
4117.6473347826531608
 30
0.0
 10
-2075.7287846667336453
 20
4102.7820895799613936
 30
0.0
 10
-2084.512793195597169
 20
4098.7279317974098376
 30
0.0
 10
-2093.2968017244602379
 20
4103.4577825437208958
 30
0.0
 10
-2100.0537313620470741
 20
4105.4848614349957643
 30
0.0
  0
SPLINE
  5
F8
  8
Steine
 62
256
370
-1
  6
ByLayer
100
AcDbEntity
100
AcDbSpline
 70
8
 71
3
 72
20
 73
16
 74
0
 40
0.0
 40
0.0
 40
0.0
 40
0.0
 40
0.0769230769230769
 40
0.1538461538461539
 40
0.2307692307692308
 40
0.3076923076923077
 40
0.3846153846153846
 40
0.4615384615384616
 40
0.5384615384615385
 40
0.6153846153846154
 40
0.6923076923076923
 40
0.7692307692307693
 40
0.8461538461538463
 40
0.9230769230769231
 40
1.0
 40
1.0
 40
1.0
 40
1.0
 10
-2184.2721023649514791
 20
4241.596452054578549
 30
0.0
 10
-2195.0831897850907808
 20
4244.6235565322176626
 30
0.0
 10
-2201.137398740369008
 20
4254.137313461940721
 30
0.0
 10
-2202.0022857339799884
 20
4271.4350533341639675
 30
0.0
 10
-2194.6507462882855179
 20
4291.7598976840254181
 30
0.0
 10
-2182.5423283777295183
 20
4290.4625671936082654
 30
0.0
 10
-2168.2716929831453854
 20
4287.8679062127748693
 30
0.0
 10
-2149.6766226205058956
 20
4283.1110277479137949
 30
0.0
 10
-2139.7304221939775744
 20
4274.4621578118021716
 30
0.0
 10
-2136.2708742195327432
 20
4259.3266354236075131
 30
0.0
 10
-2143.1899701684219508
 20
4242.8937825449957018
 30
0.0
 10
-2151.838840104533574
 20
4235.5422430993003218
 30
0.0
 10
-2161.3525970342561777
 20
4238.5693475769403449
 30
0.0
 10
-2170.4339104671730638
 20
4239.001791073745153
 30
0.0
 10
-2179.5152239000904046
 20
4234.6773561056888866
 30
0.0
 10
-2183.4072153713404987
 20
4240.7315650609671138
 30
0.0
  0
SPLINE
  5
F9
  8
Steine
 62
256
370
-1
  6
ByLayer
100
AcDbEntity
100
AcDbSpline
 70
8
 71
3
 72
23
 73
19
 74
0
 40
0.0
 40
0.0
 40
0.0
 40
0.0
 40
0.0625
 40
0.125
 40
0.1875
 40
0.25
 40
0.3125
 40
0.375
 40
0.4375
 40
0.5
 40
0.5625
 40
0.625
 40
0.6875
 40
0.75
 40
0.8125
 40
0.875
 40
0.9375
 40
1.0
 40
1.0
 40
1.0
 40
1.0
 10
-2146.2170746460610644
 20
4234.6773561056888866
 30
0.0
 10
-2137.5682047099494412
 20
4253.2724264683292859
 30
0.0
 10
-2132.8113262450883667
 20
4273.5972708181907365
 30
0.0
 10
-2124.1624563089767435
 20
4286.5705757223586261
 30
0.0
 10
-2116.3784733664765554
 20
4280.0839232702746813
 30
0.0
 10
-2110.7567079080040457
 20
4276.191931799025042
 30
0.0
 10
-2101.2429509782814421
 20
4270.1377228437468148
 30
0.0
 10
-2093.458968035781254
 20
4262.3537399012457172
 30
0.0
 10
-2095.6211855198089324
 20
4251.9750959779121331
 30
0.0
 10
-2093.458968035781254
 20
4243.3262260418014193
 30
0.0
 10
-2089.56697656453116
 20
4239.001791073745153
 30
0.0
 10
-2096.05362901661465
 20
4236.4071300929117569
 30
0.0
 10
-2105.5673859463372537
 20
4234.2449126088840785
 30
0.0
 10
-2108.5944904239763673
 20
4229.9204776408278121
 30
0.0
 10
-2116.810916863282273
 20
4228.1907036536058513
 30
0.0
 10
-2123.7300128121714806
 20
4228.1907036536058513
 30
0.0
 10
-2131.5139957546716687
 20
4230.7853646344392473
 30
0.0
 10
-2140.1628656907832919
 20
4232.5151386216621177
 30
0.0
 10
-2146.2170746460610644
 20
4233.3800256152726433
 30
0.0
  0
SPLINE
  5
FA
  8
Steine
 62
256
370
-1
  6
ByLayer
100
AcDbEntity
100
AcDbSpline
 70
8
 71
3
 72
22
 73
18
 74
0
 40
0.0
 40
0.0
 40
0.0
 40
0.0
 40
0.0666666666666667
 40
0.1333333333333333
 40
0.2
 40
0.2666666666666667
 40
0.3333333333333333
 40
0.4
 40
0.4666666666666667
 40
0.5333333333333333
 40
0.6
 40
0.6666666666666666
 40
0.7333333333333333
 40
0.8
 40
0.8666666666666667
 40
0.9333333333333333
 40
1.0
 40
1.0
 40
1.0
 40
1.0
 10
-2225.3542345614810074
 20
4287.4354627159700613
 30
0.0
 10
-2232.7057740071759326
 20
4299.1114371297198886
 30
0.0
 10
-2235.7328784848150462
 20
4304.3007590913866807
 30
0.0
 10
-2250.435957376204442
 20
4315.1118465115268918
 30
0.0
 10
-2262.1119317899547241
 20
4326.3553774284710016
 30
0.0
 10
-2261.2470447963437437
 20
4334.1393603709711897
 30
0.0
 10
-2253.030618357037838
 20
4346.2477782815276441
 30
0.0
 10
-2240.0573134528704031
 20
4349.2748827591658483
 30
0.0
 10
-2210.6511556700916117
 20
4339.3286823326379817
 30
0.0
 10
-2205.029390211619102
 20
4334.5718038677769073
 30
0.0
 10
-2175.190788932034593
 20
4333.7069168741654721
 30
0.0
 10
-2193.7858592946740828
 20
4311.2198550402754336
 30
0.0
 10
-2201.5698422371747256
 20
4296.9492196456922102
 30
0.0
 10
-2199.84006824995231
 20
4292.1923411808311357
 30
0.0
 10
-2200.2725117467580276
 20
4282.6785842511080773
 30
0.0
 10
-2197.245407269118914
 20
4272.2999403277744932
 30
0.0
 10
-2214.9755906381474233
 20
4276.191931799025042
 30
0.0
 10
-2226.2191215550924426
 20
4287.0030192191643437
 30
0.0
  0
SPLINE
  5
FB
  8
Steine
 62
256
370
-1
  6
ByLayer
100
AcDbEntity
100
AcDbSpline
 70
8
 71
3
 72
18
 73
14
 74
0
 40
0.0
 40
0.0
 40
0.0
 40
0.0
 40
0.0909090909090909
 40
0.1818181818181818
 40
0.2727272727272727
 40
0.3636363636363636
 40
0.4545454545454546
 40
0.5454545454545454
 40
0.6363636363636364
 40
0.7272727272727273
 40
0.8181818181818182
 40
0.9090909090909092
 40
1.0
 40
1.0
 40
1.0
 40
1.0
 10
-2191.1911983138406868
 20
4307.7603070658315119
 30
0.0
 10
-2180.8125543905071027
 20
4321.1660554668042096
 30
0.0
 10
-2176.0556759256455734
 20
4331.9771428869435113
 30
0.0
 10
-2167.4068059895344049
 20
4342.3557868102780049
 30
0.0
 10
-2160.0552665438394797
 20
4349.2748827591658483
 30
0.0
 10
-2147.5144051364777624
 20
4341.0584563198608521
 30
0.0
 10
-2131.0815522578659511
 20
4315.9767335051374175
 30
0.0
 10
-2125.0273433025881786
 20
4304.7332025881923983
 30
0.0
 10
-2113.7838123856431594
 20
4293.489671671247379
 30
0.0
 10
-2131.5139957546716687
 20
4279.2190362766632461
 30
0.0
 10
-2154.4335010853669701
 20
4287.0030192191643437
 30
0.0
 10
-2176.9205629192570086
 20
4292.6247846776368533
 30
0.0
 10
-2193.7858592946740828
 20
4295.6518891552750574
 30
0.0
 10
-2192.4885288042573848
 20
4307.7603070658315119
 30
0.0
  0
SPLINE
  5
FC
  8
Steine
 62
256
370
-1
  6
ByLayer
100
AcDbEntity
100
AcDbSpline
 70
8
 71
3
 72
18
 73
14
 74
0
 40
0.0
 40
0.0
 40
0.0
 40
0.0
 40
0.0909090909090909
 40
0.1818181818181818
 40
0.2727272727272727
 40
0.3636363636363636
 40
0.4545454545454546
 40
0.5454545454545454
 40
0.6363636363636364
 40
0.7272727272727273
 40
0.8181818181818182
 40
0.9090909090909092
 40
1.0
 40
1.0
 40
1.0
 40
1.0
 10
-2268.3012793379912182
 20
4334.5447761492359859
 30
0.0
 10
-2253.436034135299451
 20
4348.0586354244105678
 30
0.0
 10
-2240.5978678238839166
 20
4360.2211087720679643
 30
0.0
 10
-2243.3006396789191967
 20
4379.1405117573112875
 30
0.0
 10
-2256.1388059903342764
 20
4396.0328358512797422
 30
0.0
 10
-2269.6526652655088583
 20
4402.1140725251079857
 30
0.0
 10
-2282.4908315769243927
 20
4398.7356077063141129
 30
0.0
 10
-2296.0046908520985198
 20
4385.2217484311404405
 30
0.0
 10
-2300.0588486346505306
 20
4364.9509595183790225
 30
0.0
 10
-2304.1130064172029961
 20
4353.4641791344802186
 30
0.0
 10
-2293.3019189970636944
 20
4347.3829424606519751
 30
0.0
 10
-2283.8422175044415781
 20
4346.0315565331347898
 30
0.0
 10
-2280.46375268564816
 20
4335.8961620767540808
 30
0.0
 10
-2269.6526652655088583
 20
4335.8961620767540808
 30
0.0
  0
SPLINE
  5
FD
  8
Steine
 62
256
370
-1
  6
ByLayer
100
AcDbEntity
100
AcDbSpline
 70
8
 71
3
 72
17
 73
13
 74
0
 40
0.0
 40
0.0
 40
0.0
 40
0.0
 40
0.1
 40
0.2
 40
0.3
 40
0.4
 40
0.5
 40
0.6000000000000001
 40
0.7000000000000001
 40
0.8
 40
0.9
 40
1.0
 40
1.0
 40
1.0
 40
1.0
 10
-2241.9492537514015567
 20
4352.1127932069630333
 30
0.0
 10
-2241.9492537514015567
 20
4369.6808102646900807
 30
0.0
 10
-2239.9221748601253239
 20
4394.0057569600030547
 30
0.0
 10
-2232.4895522587794403
 20
4402.1140725251079857
 30
0.0
 10
-2209.5159914909836516
 20
4394.0057569600030547
 30
0.0
 10
-2185.8667377594283607
 20
4374.4106610110002293
 30
0.0
 10
-2173.028571448013281
 20
4366.3023454458962078
 30
0.0
 10
-2168.2987207017022229
 20
4351.4371002432044406
 30
0.0
 10
-2180.4611940493587099
 20
4342.653091714340917
 30
0.0
 10
-2185.8667377594283607
 20
4335.2204691129954881
 30
0.0
 10
-2200.0562899983615353
 20
4353.4641791344802186
 30
0.0
 10
-2218.3000000198467205
 20
4346.7072494968933825
 30
0.0
 10
-2240.5978678238839166
 20
4350.761407279445848
 30
0.0
  0
SPLINE
  5
FE
  8
Steine
 62
256
370
-1
  6
ByLayer
100
AcDbEntity
100
AcDbSpline
 70
8
 71
3
 72
21
 73
17
 74
0
 40
0.0
 40
0.0
 40
0.0
 40
0.0
 40
0.0714285714285714
 40
0.1428571428571428
 40
0.2142857142857143
 40
0.2857142857142857
 40
0.3571428571428571
 40
0.4285714285714285
 40
0.5
 40
0.5714285714285714
 40
0.6428571428571428
 40
0.7142857142857142
 40
0.7857142857142857
 40
0.8571428571428571
 40
0.9285714285714285
 40
1.0
 40
1.0
 40
1.0
 40
1.0
 10
-2273.706823048060869
 20
4418.3307036553160287
 30
0.0
 10
-2291.2748401057874617
 20
4402.1140725251079857
 30
0.0
 10
-2293.3019189970636944
 20
4388.6002132499334039
 30
0.0
 10
-2304.7886993809615888
 20
4371.7078891559649492
 30
0.0
 10
-2306.8157782722378215
 20
4356.8426439532740915
 30
0.0
 10
-2329.1136460762750175
 20
4360.8968017358256475
 30
0.0
 10
-2346.6816631340016102
 20
4370.3565032284477638
 30
0.0
 10
-2357.4927505541409118
 20
4369.0051173009305785
 30
0.0
 10
-2364.9253731554867954
 20
4381.8432836123465677
 30
0.0
 10
-2358.8441364816585519
 20
4389.2759062136919965
 30
0.0
 10
-2341.2761194239319593
 20
4397.3842217787969275
 30
0.0
 10
-2322.3567164386881814
 20
4395.35714288752024
 30
0.0
 10
-2318.3025586561357159
 20
4414.9522388365230654
 30
0.0
 10
-2320.3296375474119486
 20
4426.4390192204209598
 30
0.0
 10
-2308.8428571635140543
 20
4428.4660981116976473
 30
0.0
 10
-2290.599147142028869
 20
4424.4119403291451817
 30
0.0
 10
-2275.0582089755785091
 20
4420.3577825465927162
 30
0.0
  0
SPLINE
  5
FF
  8
Steine
 62
256
370
-1
  6
ByLayer
100
AcDbEntity
100
AcDbSpline
 70
8
 71
3
 72
21
 73
17
 74
0
 40
0.0
 40
0.0
 40
0.0
 40
0.0
 40
0.0714285714285714
 40
0.1428571428571428
 40
0.2142857142857143
 40
0.2857142857142857
 40
0.3571428571428571
 40
0.4285714285714285
 40
0.5
 40
0.5714285714285714
 40
0.6428571428571428
 40
0.7142857142857142
 40
0.7857142857142857
 40
0.8571428571428571
 40
0.9285714285714285
 40
1.0
 40
1.0
 40
1.0
 40
1.0
 10
-2360.1955224091757373
 20
4436.5744136768016688
 30
0.0
 10
-2387.2232409595244462
 20
4433.8716418217663886
 30
0.0
 10
-2402.7641791259748061
 20
4430.4931770029734253
 30
0.0
 10
-2410.1968017273206897
 20
4427.1147121841804619
 30
0.0
 10
-2415.6023454373903405
 20
4418.3307036553160287
 30
0.0
 10
-2416.9537313649075259
 20
4396.0328358512797422
 30
0.0
 10
-2405.4669509810096315
 20
4376.4377399022760073
 30
0.0
 10
-2402.0884861622157587
 20
4373.7349680472416367
 30
0.0
 10
-2379.7906183581785626
 20
4373.059275083483044
 30
0.0
 10
-2372.357995756832679
 20
4379.1405117573112875
 30
0.0
 10
-2364.9253731554867954
 20
4388.6002132499334039
 30
0.0
 10
-2352.087206844071261
 20
4398.0599147425546107
 30
0.0
 10
-2342.6275053514495994
 20
4400.7626865975898909
 30
0.0
 10
-2330.4650320037926576
 20
4407.5196162351767271
 30
0.0
 10
-2330.4650320037926576
 20
4425.0876332929037744
 30
0.0
 10
-2344.6545842427253774
 20
4433.1959488580087054
 30
0.0
 10
-2357.4927505541409118
 20
4437.2501066405602614
 30
0.0
  0
SPLINE
  5
100
  8
Steine
 62
256
370
-1
  6
ByLayer
100
AcDbEntity
100
AcDbSpline
 70
8
 71
3
 72
19
 73
15
 74
0
 40
0.0
 40
0.0
 40
0.0
 40
0.0
 40
0.0833333333333333
 40
0.1666666666666667
 40
0.25
 40
0.3333333333333333
 40
0.4166666666666666
 40
0.5
 40
0.5833333333333333
 40
0.6666666666666666
 40
0.75
 40
0.8333333333333333
 40
0.9166666666666666
 40
1.0
 40
1.0
 40
1.0
 40
1.0
 10
-2438.5759062051861292
 20
4366.3023454458962078
 30
0.0
 10
-2450.0626865890844783
 20
4371.7078891559649492
 30
0.0
 10
-2453.4411514078778964
 20
4375.086353974758822
 30
0.0
 10
-2461.5494669729823727
 20
4394.0057569600030547
 30
0.0
 10
-2461.5494669729823727
 20
4405.4925373439009491
 30
0.0
 10
-2454.7925373353955365
 20
4415.6279318002816581
 30
0.0
 10
-2443.9814499152557801
 20
4424.4119403291451817
 30
0.0
 10
-2432.4946695313578857
 20
4425.7633262566623671
 30
0.0
 10
-2425.0620469300120021
 20
4419.0063966190755309
 30
0.0
 10
-2422.3592750749771767
 20
4406.1682303076595417
 30
0.0
 10
-2416.9537313649075259
 20
4394.6814499237616474
 30
0.0
 10
-2414.9266524736312931
 20
4382.5189765761042509
 30
0.0
 10
-2421.0078891474599914
 20
4362.923880627102335
 30
0.0
 10
-2430.467590640081653
 20
4358.1940298807912768
 30
0.0
 10
-2437.9002132414275366
 20
4366.3023454458962078
 30
0.0
  0
SPLINE
  5
101
  8
Steine
 62
256
370
-1
  6
ByLayer
100
AcDbEntity
100
AcDbSpline
 70
8
 71
3
 72
20
 73
16
 74
0
 40
0.0
 40
0.0
 40
0.0
 40
0.0
 40
0.0769230769230769
 40
0.1538461538461539
 40
0.2307692307692308
 40
0.3076923076923077
 40
0.3846153846153846
 40
0.4615384615384616
 40
0.5384615384615385
 40
0.6153846153846154
 40
0.6923076923076923
 40
0.7692307692307693
 40
0.8461538461538463
 40
0.9230769230769231
 40
1.0
 40
1.0
 40
1.0
 40
1.0
 10
-2501.4153518347466161
 20
4360.8968017358256475
 30
0.0
 10
-2518.3076759287141613
 20
4354.815565061997404
 30
0.0
 10
-2516.2805970374379285
 20
4335.8961620767540808
 30
0.0
 10
-2541.2812366965104047
 20
4339.2746268955470441
 30
0.0
 10
-2545.3353944790624155
 20
4365.6266524821367057
 30
0.0
 10
-2541.9569296602689974
 20
4376.4377399022760073
 30
0.0
 10
-2531.8215352038882884
 20
4385.8974413948981237
 30
0.0
 10
-2515.6049040736793359
 20
4393.330063996244462
 30
0.0
 10
-2495.3341151609179178
 20
4400.7626865975898909
 30
0.0
 10
-2485.1987207045372088
 20
4405.4925373439009491
 30
0.0
 10
-2471.6848614293630817
 20
4411.5737740177301021
 30
0.0
 10
-2463.5765458642586054
 20
4402.7897654888656689
 30
0.0
 10
-2464.2522388280171981
 20
4381.1675906485870655
 30
0.0
 10
-2469.6577825380868489
 20
4373.059275083483044
 30
0.0
 10
-2481.8202558857437907
 20
4366.9780384096548005
 30
0.0
 10
-2500.063965907228976
 20
4360.8968017358256475
 30
0.0
  0
SPLINE
  5
102
  8
Steine
 62
256
370
-1
  6
ByLayer
100
AcDbEntity
100
AcDbSpline
 70
8
 71
3
 72
28
 73
24
 74
0
 40
0.0
 40
0.0
 40
0.0
 40
0.0
 40
0.0476190476190476
 40
0.0952380952380952
 40
0.1428571428571428
 40
0.1904761904761905
 40
0.2380952380952381
 40
0.2857142857142857
 40
0.3333333333333333
 40
0.3809523809523809
 40
0.4285714285714285
 40
0.4761904761904762
 40
0.5238095238095237
 40
0.5714285714285714
 40
0.6190476190476191
 40
0.6666666666666666
 40
0.7142857142857142
 40
0.7619047619047619
 40
0.8095238095238095
 40
0.8571428571428571
 40
0.9047619047619047
 40
0.9523809523809523
 40
1.0
 40
1.0
 40
1.0
 40
1.0
 10
-2619.3102601513642185
 20
4287.8679062127821453
 30
0.0
 10
-2614.9858251833084068
 20
4300.4087676201434078
 30
0.0
 10
-2607.201842240807764
 20
4313.814516021117015
 30
0.0
 10
-2592.4987633494183683
 20
4329.3824819061173912
 30
0.0
 10
-2582.552562922890047
 20
4339.7611258294509753
 30
0.0
 10
-2572.6063624963621805
 20
4351.0046567463959946
 30
0.0
 10
-2564.8223795538615377
 20
4358.356196192090465
 30
0.0
 10
-2552.713961643305538
 20
4358.7886396888961826
 30
0.0
 10
-2542.7677612167772168
 20
4342.7882303070900889
 30
0.0
 10
-2532.8215607902493502
 20
4334.5718038677841832
 30
0.0
 10
-2532.3891172934436327
 20
4328.0851514157002384
 30
0.0
 10
-2538.4433262487214051
 20
4325.4904904348668424
 30
0.0
 10
-2546.227309191222048
 20
4322.8958294540334464
 30
0.0
 10
-2565.2548230506672553
 20
4322.0309424604220112
 30
0.0
 10
-2572.1739189995564629
 20
4321.1660554668114855
 30
0.0
 10
-2576.4983539676122746
 20
4312.0847420338941447
 30
0.0
 10
-2577.363240961223255
 20
4308.1927505626445054
 30
0.0
 10
-2579.5254584452513882
 20
4300.4087676201434078
 30
0.0
 10
-2584.2823369101124626
 20
4294.3545586648651806
 30
0.0
 10
-2587.3094413877515763
 20
4292.6247846776432198
 30
0.0
 10
-2587.3094413877515763
 20
4274.4621578118094476
 30
0.0
 10
-2601.5800767823357091
 20
4274.02971431500373
 30
0.0
 10
-2621.9049211321976145
 20
4280.9488102638933924
 30
0.0
 10
-2620.1751471449751989
 20
4288.732793206392671
 30
0.0
  0
CIRCLE
  5
103
100
AcDbEntity
100
AcDbCircle
  8
Ofen
 62
256
370
-1
  6
ByLayer
 10
-2549.5500000000001819
 20
4143.2671098973296466
 30
0.0
 40
0.0
  0
CIRCLE
  5
104
100
AcDbEntity
100
AcDbCircle
  8
Ofen
 62
256
370
-1
  6
ByLayer
 10
-2549.5500000000001819
 20
4143.2671098973296466
 30
0.0
 40
0.0
  0
CIRCLE
  5
105
100
AcDbEntity
100
AcDbCircle
  8
Ofen
 62
256
370
-1
  6
ByLayer
 10
-2549.5500000000001819
 20
4143.2671098973296466
 30
0.0
 40
0.0
  0
CIRCLE
  5
106
100
AcDbEntity
100
AcDbCircle
  8
Ofen
 62
256
370
-1
  6
ByLayer
 10
-2594.0
 20
4143.0
 30
0.0
 40
0.0
  0
CIRCLE
  5
107
100
AcDbEntity
100
AcDbCircle
  8
Ofen
 62
256
370
-1
  6
ByLayer
 10
-2594.0
 20
4143.0
 30
0.0
 40
0.0
  0
CIRCLE
  5
108
100
AcDbEntity
100
AcDbCircle
  8
Ofen
 62
256
370
-1
  6
ByLayer
 10
-2594.0
 20
4143.0
 30
0.0
 40
0.0
  0
CIRCLE
  5
109
100
AcDbEntity
100
AcDbCircle
  8
Ofen
 62
256
370
-1
  6
ByLayer
 10
-2594.0
 20
4143.0
 30
0.0
 40
0.0
  0
CIRCLE
  5
10A
100
AcDbEntity
100
AcDbCircle
  8
Ofen
 62
256
370
-1
  6
ByLayer
 10
-2549.5500000000001819
 20
4143.0
 30
0.0
 40
63.3000000000001393
  0
CIRCLE
  5
10B
100
AcDbEntity
100
AcDbCircle
  8
Ofen
 62
256
370
-1
  6
ByLayer
 10
-2549.5500000000001819
 20
4143.2671098973296466
 30
0.0
 40
66.2328901026704102
  0
ELLIPSE
  5
10C
100
AcDbEntity
100
AcDbEllipse
  8
Ofen
 62
256
370
-1
  6
ByLayer
 10
-1985.0
 20
4143.0
 30
0.0
 11
-30.0
 21
0.0
 31
0.0
 40
6.0
 41
0.0
 42
6.2831853071795862
  0
LINE
  5
10D
100
AcDbEntity
100
AcDbLine
  8
Ofen
 62
256
370
-1
  6
ByLayer
 10
-2009.0
 20
4323.0
 30
0.0
 11
-1985.0
 21
4323.0
 31
0.0
  0
LINE
  5
10E
100
AcDbEntity
100
AcDbLine
  8
Ofen
 62
256
370
-1
  6
ByLayer
 10
-2009.0
 20
3963.0
 30
0.0
 11
-1985.0
 21
3963.0
 31
0.0
  0
ELLIPSE
  5
10F
100
AcDbEntity
100
AcDbEllipse
  8
Ofen
 62
256
370
-1
  6
ByLayer
 10
-2009.0
 20
4143.0
 30
0.0
 11
0.0
 21
180.0
 31
0.0
 40
0.1666666666666667
 41
0.0
 42
3.1415926535897931
  0
CIRCLE
  5
110
100
AcDbEntity
100
AcDbCircle
  8
Ofen
 62
256
370
-1
  6
ByLayer
 10
-2365.981143409757351
 20
4143.0
 30
0.0
 40
300.0
  0
CIRCLE
  5
111
100
AcDbEntity
100
AcDbCircle
  8
Ofen
 62
256
370
-1
  6
ByLayer
 10
-2365.981143409757351
 20
4143.0
 30
0.0
 40
296.0
  0
LINE
  5
112
100
AcDbEntity
100
AcDbLine
  8
Ofen
 62
256
370
-1
  6
ByLayer
 10
-2045.0
 20
4199.0
 30
0.0
 11
-2030.0
 21
4199.0
 31
0.0
  0
ARC
  5
113
100
AcDbEntity
  8
Ofen
 62
256
370
-1
  6
ByLayer
100
AcDbCircle
 10
-2045.0
 20
4194.0
 30
0.0
 40
5.0
100
AcDbArc
 50
90.0
 51
180.0
  0
LINE
  5
114
100
AcDbEntity
100
AcDbLine
  8
Ofen
 62
256
370
-1
  6
ByLayer
 10
-2050.0
 20
4092.0
 30
0.0
 11
-2050.0
 21
4194.0
 31
0.0
  0
LINE
  5
115
100
AcDbEntity
100
AcDbLine
  8
Ofen
 62
256
370
-1
  6
ByLayer
 10
-2045.0
 20
4087.0
 30
0.0
 11
-2030.0
 21
4087.0
 31
0.0
  0
ARC
  5
116
100
AcDbEntity
  8
Ofen
 62
256
370
-1
  6
ByLayer
100
AcDbCircle
 10
-2045.0
 20
4092.0
 30
0.0
 40
5.0
100
AcDbArc
 50
180.0
 51
270.0
  0
LINE
  5
117
100
AcDbEntity
100
AcDbLine
  8
Ofen
 62
256
370
-1
  6
ByLayer
 10
-2045.0
 20
4203.0
 30
0.0
 11
-2030.0
 21
4203.0
 31
0.0
  0
ARC
  5
118
100
AcDbEntity
  8
Ofen
 62
256
370
-1
  6
ByLayer
100
AcDbCircle
 10
-2045.0
 20
4194.0
 30
0.0
 40
9.0
100
AcDbArc
 50
90.0
 51
180.0
  0
LINE
  5
119
100
AcDbEntity
100
AcDbLine
  8
Ofen
 62
256
370
-1
  6
ByLayer
 10
-2045.0
 20
4083.0
 30
0.0
 11
-2030.0
 21
4083.0
 31
0.0
  0
LINE
  5
11A
100
AcDbEntity
100
AcDbLine
  8
Ofen
 62
256
370
-1
  6
ByLayer
 10
-2054.0
 20
4092.0
 30
0.0
 11
-2054.0
 21
4194.0
 31
0.0
  0
ARC
  5
11B
100
AcDbEntity
  8
Ofen
 62
256
370
-1
  6
ByLayer
100
AcDbCircle
 10
-2045.0
 20
4092.0
 30
0.0
 40
9.0
100
AcDbArc
 50
180.0
 51
270.0
  0
LINE
  5
11C
100
AcDbEntity
100
AcDbLine
  8
Ofen
 62
256
370
-1
  6
ByLayer
 10
-2030.0
 20
4203.0
 30
0.0
 11
-2030.0
 21
4199.0
 31
0.0
  0
LINE
  5
11D
100
AcDbEntity
100
AcDbLine
  8
Ofen
 62
256
370
-1
  6
ByLayer
 10
-2030.0
 20
4087.0
 30
0.0
 11
-2030.0
 21
4083.0
 31
0.0
  0
LINE
  5
11E
100
AcDbEntity
100
AcDbLine
  8
Ofen
 62
256
370
-1
  6
ByLayer
 10
-2020.0
 20
4199.0
 30
0.0
 11
-2020.0
 21
4087.0
 31
0.0
  0
LINE
  5
11F
100
AcDbEntity
100
AcDbLine
  8
Ofen
 62
256
370
-1
  6
ByLayer
 10
-2040.0
 20
4199.0
 30
0.0
 11
-2040.0
 21
4087.0
 31
0.0
  0
LINE
  5
120
100
AcDbEntity
100
AcDbLine
  8
Ofen
 62
256
370
-1
  6
ByLayer
 10
-2040.0
 20
4199.0
 30
0.0
 11
-2020.0
 21
4199.0
 31
0.0
  0
LINE
  5
121
100
AcDbEntity
100
AcDbLine
  8
Ofen
 62
256
370
-1
  6
ByLayer
 10
-2040.0
 20
4087.0
 30
0.0
 11
-2020.0
 21
4087.0
 31
0.0
  0
LINE
  5
122
100
AcDbEntity
100
AcDbLine
  8
Ofen
 62
256
370
-1
  6
ByLayer
 10
-2115.4317470824062184
 20
3978.0
 30
0.0
 11
-2020.9895788082817489
 21
3978.0
 31
0.0
  0
LINE
  5
123
100
AcDbEntity
100
AcDbLine
  8
Ofen
 62
256
370
-1
  6
ByLayer
 10
-2115.4317470824062184
 20
4308.0
 30
0.0
 11
-2020.9895788082817489
 21
4308.0
 31
0.0
  0
CIRCLE
  5
124
100
AcDbEntity
100
AcDbCircle
  8
Ofen
 62
256
370
-1
  6
ByLayer
 10
-1149.5499999999999545
 20
2143.2671098973296466
 30
0.0
 40
0.0
  0
CIRCLE
  5
125
100
AcDbEntity
100
AcDbCircle
  8
Ofen
 62
256
370
-1
  6
ByLayer
 10
-1149.5499999999999545
 20
2143.2671098973296466
 30
0.0
 40
0.0
  0
CIRCLE
  5
126
100
AcDbEntity
100
AcDbCircle
  8
Ofen
 62
256
370
-1
  6
ByLayer
 10
-1149.5499999999999545
 20
2143.2671098973296466
 30
0.0
 40
0.0
  0
CIRCLE
  5
127
100
AcDbEntity
100
AcDbCircle
  8
Ofen
 62
256
370
-1
  6
ByLayer
 10
-1194.0
 20
2143.0
 30
0.0
 40
0.0
  0
CIRCLE
  5
128
100
AcDbEntity
100
AcDbCircle
  8
Ofen
 62
256
370
-1
  6
ByLayer
 10
-1194.0
 20
2143.0
 30
0.0
 40
0.0
  0
CIRCLE
  5
129
100
AcDbEntity
100
AcDbCircle
  8
Ofen
 62
256
370
-1
  6
ByLayer
 10
-1194.0
 20
2143.0
 30
0.0
 40
0.0
  0
CIRCLE
  5
12A
100
AcDbEntity
100
AcDbCircle
  8
Ofen
 62
256
370
-1
  6
ByLayer
 10
-1194.0
 20
2143.0
 30
0.0
 40
0.0
  0
ELLIPSE
  5
12B
100
AcDbEntity
100
AcDbEllipse
  8
Ofen
 62
256
370
-1
  6
ByLayer
 10
-685.0
 20
2143.0
 30
0.0
 11
-25.0
 21
0.0
 31
0.0
 40
6.0
 41
0.0
 42
6.2831853071795862
  0
LINE
  5
12C
100
AcDbEntity
100
AcDbLine
  8
Ofen
 62
256
370
-1
  6
ByLayer
 10
-705.0
 20
2293.0
 30
0.0
 11
-685.0
 21
2293.0
 31
0.0
  0
LINE
  5
12D
100
AcDbEntity
100
AcDbLine
  8
Ofen
 62
256
370
-1
  6
ByLayer
 10
-705.0
 20
1993.0
 30
0.0
 11
-685.0
 21
1993.0
 31
0.0
  0
LINE
  5
12E
100
AcDbEntity
100
AcDbLine
  8
Ofen
 62
256
370
-1
  6
ByLayer
 10
-907.8675354734075427
 20
2279.5
 30
0.0
 11
-715.3652062208134339
 21
2279.5
 31
0.0
  0
ELLIPSE
  5
12F
100
AcDbEntity
100
AcDbEllipse
  8
Ofen
 62
256
370
-1
  6
ByLayer
 10
-705.0
 20
2143.0
 30
0.0
 11
0.0
 21
150.0
 31
0.0
 40
0.1666666666666667
 41
0.0
 42
3.1415926535897931
  0
LINE
  5
130
100
AcDbEntity
100
AcDbLine
  8
Ofen
 62
256
370
-1
  6
ByLayer
 10
-735.0
 20
2199.0
 30
0.0
 11
-720.0
 21
2199.0
 31
0.0
  0
ARC
  5
131
100
AcDbEntity
  8
Ofen
 62
256
370
-1
  6
ByLayer
100
AcDbCircle
 10
-735.0
 20
2194.0
 30
0.0
 40
5.0
100
AcDbArc
 50
90.0
 51
180.0
  0
LINE
  5
132
100
AcDbEntity
100
AcDbLine
  8
Ofen
 62
256
370
-1
  6
ByLayer
 10
-740.0
 20
2092.0
 30
0.0
 11
-740.0
 21
2194.0
 31
0.0
  0
LINE
  5
133
100
AcDbEntity
100
AcDbLine
  8
Ofen
 62
256
370
-1
  6
ByLayer
 10
-735.0
 20
2087.0
 30
0.0
 11
-720.0
 21
2087.0
 31
0.0
  0
ARC
  5
134
100
AcDbEntity
  8
Ofen
 62
256
370
-1
  6
ByLayer
100
AcDbCircle
 10
-735.0
 20
2092.0
 30
0.0
 40
5.0
100
AcDbArc
 50
180.0
 51
270.0
  0
LINE
  5
135
100
AcDbEntity
100
AcDbLine
  8
Ofen
 62
256
370
-1
  6
ByLayer
 10
-735.0
 20
2203.0
 30
0.0
 11
-720.0
 21
2203.0
 31
0.0
  0
ARC
  5
136
100
AcDbEntity
  8
Ofen
 62
256
370
-1
  6
ByLayer
100
AcDbCircle
 10
-735.0
 20
2194.0
 30
0.0
 40
9.0
100
AcDbArc
 50
90.0
 51
180.0
  0
LINE
  5
137
100
AcDbEntity
100
AcDbLine
  8
Ofen
 62
256
370
-1
  6
ByLayer
 10
-735.0
 20
2083.0
 30
0.0
 11
-720.0
 21
2083.0
 31
0.0
  0
LINE
  5
138
100
AcDbEntity
100
AcDbLine
  8
Ofen
 62
256
370
-1
  6
ByLayer
 10
-744.0
 20
2092.0
 30
0.0
 11
-744.0
 21
2194.0
 31
0.0
  0
ARC
  5
139
100
AcDbEntity
  8
Ofen
 62
256
370
-1
  6
ByLayer
100
AcDbCircle
 10
-735.0
 20
2092.0
 30
0.0
 40
9.0
100
AcDbArc
 50
180.0
 51
270.0
  0
LINE
  5
13A
100
AcDbEntity
100
AcDbLine
  8
Ofen
 62
256
370
-1
  6
ByLayer
 10
-720.0
 20
2203.0
 30
0.0
 11
-720.0
 21
2199.0
 31
0.0
  0
LINE
  5
13B
100
AcDbEntity
100
AcDbLine
  8
Ofen
 62
256
370
-1
  6
ByLayer
 10
-720.0
 20
2087.0
 30
0.0
 11
-720.0
 21
2083.0
 31
0.0
  0
LINE
  5
13C
100
AcDbEntity
100
AcDbLine
  8
Ofen
 62
256
370
-1
  6
ByLayer
 10
-710.0
 20
2199.0
 30
0.0
 11
-710.0
 21
2087.0
 31
0.0
  0
LINE
  5
13D
100
AcDbEntity
100
AcDbLine
  8
Ofen
 62
256
370
-1
  6
ByLayer
 10
-730.0
 20
2199.0
 30
0.0
 11
-730.0
 21
2087.0
 31
0.0
  0
LINE
  5
13E
100
AcDbEntity
100
AcDbLine
  8
Ofen
 62
256
370
-1
  6
ByLayer
 10
-730.0
 20
2199.0
 30
0.0
 11
-710.0
 21
2199.0
 31
0.0
  0
LINE
  5
13F
100
AcDbEntity
100
AcDbLine
  8
Ofen
 62
256
370
-1
  6
ByLayer
 10
-730.0
 20
2087.0
 30
0.0
 11
-710.0
 21
2087.0
 31
0.0
  0
CIRCLE
  5
140
100
AcDbEntity
100
AcDbCircle
  8
Ofen
 62
256
370
-1
  6
ByLayer
 10
-2549.5500000000001819
 20
2143.2671098973296466
 30
0.0
 40
0.0
  0
CIRCLE
  5
141
100
AcDbEntity
100
AcDbCircle
  8
Ofen
 62
256
370
-1
  6
ByLayer
 10
-2549.5500000000001819
 20
2143.2671098973296466
 30
0.0
 40
0.0
  0
CIRCLE
  5
142
100
AcDbEntity
100
AcDbCircle
  8
Ofen
 62
256
370
-1
  6
ByLayer
 10
-2549.5500000000001819
 20
2143.2671098973296466
 30
0.0
 40
0.0
  0
CIRCLE
  5
143
100
AcDbEntity
100
AcDbCircle
  8
Ofen
 62
256
370
-1
  6
ByLayer
 10
-2594.0
 20
2143.0
 30
0.0
 40
0.0
  0
CIRCLE
  5
144
100
AcDbEntity
100
AcDbCircle
  8
Ofen
 62
256
370
-1
  6
ByLayer
 10
-2594.0
 20
2143.0
 30
0.0
 40
0.0
  0
CIRCLE
  5
145
100
AcDbEntity
100
AcDbCircle
  8
Ofen
 62
256
370
-1
  6
ByLayer
 10
-2594.0
 20
2143.0
 30
0.0
 40
0.0
  0
CIRCLE
  5
146
100
AcDbEntity
100
AcDbCircle
  8
Ofen
 62
256
370
-1
  6
ByLayer
 10
-2594.0
 20
2143.0
 30
0.0
 40
0.0
  0
ELLIPSE
  5
147
100
AcDbEntity
100
AcDbEllipse
  8
Ofen
 62
256
370
-1
  6
ByLayer
 10
-1985.0
 20
2143.0
 30
0.0
 11
-30.0
 21
0.0
 31
0.0
 40
6.0
 41
0.0
 42
6.2831853071795862
  0
LINE
  5
148
100
AcDbEntity
100
AcDbLine
  8
Ofen
 62
256
370
-1
  6
ByLayer
 10
-2009.0
 20
2323.0
 30
0.0
 11
-1985.0
 21
2323.0
 31
0.0
  0
LINE
  5
149
100
AcDbEntity
100
AcDbLine
  8
Ofen
 62
256
370
-1
  6
ByLayer
 10
-2009.0
 20
1963.0
 30
0.0
 11
-1985.0
 21
1963.0
 31
0.0
  0
ELLIPSE
  5
14A
100
AcDbEntity
100
AcDbEllipse
  8
Ofen
 62
256
370
-1
  6
ByLayer
 10
-2009.0
 20
2143.0
 30
0.0
 11
0.0
 21
180.0
 31
0.0
 40
0.1666666666666667
 41
0.0
 42
3.1415926535897931
  0
LINE
  5
14B
100
AcDbEntity
100
AcDbLine
  8
Ofen
 62
256
370
-1
  6
ByLayer
 10
-2594.0
 20
1978.0
 30
0.0
 11
-2020.9895788082817489
 21
1978.0
 31
0.0
  0
LINE
  5
14C
100
AcDbEntity
100
AcDbLine
  8
Ofen
 62
256
370
-1
  6
ByLayer
 10
-2594.0
 20
2308.0
 30
0.0
 11
-2020.9895788082817489
 21
2308.0
 31
0.0
  0
LINE
  5
14D
100
AcDbEntity
100
AcDbLine
  8
Ofen
 62
256
370
-1
  6
ByLayer
 10
-2045.0
 20
2199.0
 30
0.0
 11
-2030.0
 21
2199.0
 31
0.0
  0
ARC
  5
14E
100
AcDbEntity
  8
Ofen
 62
256
370
-1
  6
ByLayer
100
AcDbCircle
 10
-2045.0
 20
2194.0
 30
0.0
 40
5.0
100
AcDbArc
 50
90.0
 51
180.0
  0
LINE
  5
14F
100
AcDbEntity
100
AcDbLine
  8
Ofen
 62
256
370
-1
  6
ByLayer
 10
-2050.0
 20
2092.0
 30
0.0
 11
-2050.0
 21
2194.0
 31
0.0
  0
LINE
  5
150
100
AcDbEntity
100
AcDbLine
  8
Ofen
 62
256
370
-1
  6
ByLayer
 10
-2045.0
 20
2087.0
 30
0.0
 11
-2030.0
 21
2087.0
 31
0.0
  0
ARC
  5
151
100
AcDbEntity
  8
Ofen
 62
256
370
-1
  6
ByLayer
100
AcDbCircle
 10
-2045.0
 20
2092.0
 30
0.0
 40
5.0
100
AcDbArc
 50
180.0
 51
270.0
  0
LINE
  5
152
100
AcDbEntity
100
AcDbLine
  8
Ofen
 62
256
370
-1
  6
ByLayer
 10
-2045.0
 20
2203.0
 30
0.0
 11
-2030.0
 21
2203.0
 31
0.0
  0
ARC
  5
153
100
AcDbEntity
  8
Ofen
 62
256
370
-1
  6
ByLayer
100
AcDbCircle
 10
-2045.0
 20
2194.0
 30
0.0
 40
9.0
100
AcDbArc
 50
90.0
 51
180.0
  0
LINE
  5
154
100
AcDbEntity
100
AcDbLine
  8
Ofen
 62
256
370
-1
  6
ByLayer
 10
-2045.0
 20
2083.0
 30
0.0
 11
-2030.0
 21
2083.0
 31
0.0
  0
LINE
  5
155
100
AcDbEntity
100
AcDbLine
  8
Ofen
 62
256
370
-1
  6
ByLayer
 10
-2054.0
 20
2092.0
 30
0.0
 11
-2054.0
 21
2194.0
 31
0.0
  0
ARC
  5
156
100
AcDbEntity
  8
Ofen
 62
256
370
-1
  6
ByLayer
100
AcDbCircle
 10
-2045.0
 20
2092.0
 30
0.0
 40
9.0
100
AcDbArc
 50
180.0
 51
270.0
  0
LINE
  5
157
100
AcDbEntity
100
AcDbLine
  8
Ofen
 62
256
370
-1
  6
ByLayer
 10
-2030.0
 20
2203.0
 30
0.0
 11
-2030.0
 21
2199.0
 31
0.0
  0
LINE
  5
158
100
AcDbEntity
100
AcDbLine
  8
Ofen
 62
256
370
-1
  6
ByLayer
 10
-2030.0
 20
2087.0
 30
0.0
 11
-2030.0
 21
2083.0
 31
0.0
  0
LINE
  5
159
100
AcDbEntity
100
AcDbLine
  8
Ofen
 62
256
370
-1
  6
ByLayer
 10
-2020.0
 20
2199.0
 30
0.0
 11
-2020.0
 21
2087.0
 31
0.0
  0
LINE
  5
15A
100
AcDbEntity
100
AcDbLine
  8
Ofen
 62
256
370
-1
  6
ByLayer
 10
-2040.0
 20
2199.0
 30
0.0
 11
-2040.0
 21
2087.0
 31
0.0
  0
LINE
  5
15B
100
AcDbEntity
100
AcDbLine
  8
Ofen
 62
256
370
-1
  6
ByLayer
 10
-2040.0
 20
2199.0
 30
0.0
 11
-2020.0
 21
2199.0
 31
0.0
  0
LINE
  5
15C
100
AcDbEntity
100
AcDbLine
  8
Ofen
 62
256
370
-1
  6
ByLayer
 10
-2040.0
 20
2087.0
 30
0.0
 11
-2020.0
 21
2087.0
 31
0.0
  0
LINE
  5
15D
100
AcDbEntity
100
AcDbLine
  8
Ofen
 62
256
370
50
  6
ByLayer
 10
-1194.0
 20
2279.5
 30
0.0
 11
-715.3652062208133202
 21
2279.5
 31
0.0
  0
LINE
  5
15E
100
AcDbEntity
100
AcDbLine
  8
Ofen
 62
256
370
50
  6
ByLayer
 10
-1194.0
 20
2006.5
 30
0.0
 11
-715.3652062208132065
 21
2006.5
 31
0.0
  0
LINE
  5
15F
100
AcDbEntity
100
AcDbLine
  8
Ofen
 62
256
370
-1
  6
ByLayer
 10
-1399.5499999999999545
 20
2209.500009897329619
 30
0.0
 11
-1149.5499999999999545
 21
2209.500009897329619
 31
0.0
  0
LINE
  5
160
100
AcDbEntity
100
AcDbLine
  8
Ofen
 62
256
370
-1
  6
ByLayer
 10
-1399.5499999999999545
 20
2077.0342098973296743
 30
0.0
 11
-1149.5499999999999545
 21
2077.0342098973296743
 31
0.0
  0
LINE
  5
161
100
AcDbEntity
100
AcDbLine
  8
Ofen
 62
256
370
-1
  6
ByLayer
 10
-2799.5500000000001819
 20
2209.500009897329619
 30
0.0
 11
-2549.5500000000001819
 21
2209.500009897329619
 31
0.0
  0
LINE
  5
162
100
AcDbEntity
100
AcDbLine
  8
Ofen
 62
256
370
-1
  6
ByLayer
 10
-2594.0
 20
2077.0342098973296743
 30
0.0
 11
-2594.0
 21
1978.0
 31
0.0
  0
LINE
  5
163
100
AcDbEntity
100
AcDbLine
  8
Ofen
 62
256
370
-1
  6
ByLayer
 10
-2594.0
 20
2308.0
 30
0.0
 11
-2594.0
 21
2209.500009897329619
 31
0.0
  0
ARC
  5
164
100
AcDbEntity
  8
Ofen
 62
256
370
-1
  6
ByLayer
100
AcDbCircle
 10
-2549.5500000000001819
 20
2143.2671098973296466
 30
0.0
 40
66.2328901026704102
100
AcDbArc
 50
270.0
 51
90.0
  0
ARC
  5
165
100
AcDbEntity
  8
Ofen
 62
256
370
-1
  6
ByLayer
100
AcDbCircle
 10
-1149.5499999999999545
 20
2143.2671098973296466
 30
0.0
 40
66.2328901026704102
100
AcDbArc
 50
270.0
 51
90.0
  0
LINE
  5
166
100
AcDbEntity
100
AcDbLine
  8
Ofen
 62
256
370
-1
  6
ByLayer
 10
-1194.0
 20
2279.5
 30
0.0
 11
-1194.0
 21
2209.500009897329619
 31
0.0
  0
LINE
  5
167
100
AcDbEntity
100
AcDbLine
  8
Ofen
 62
256
370
-1
  6
ByLayer
 10
-1194.0
 20
2077.0342098973296743
 30
0.0
 11
-1194.0
 21
2006.5
 31
0.0
  0
LINE
  5
168
100
AcDbEntity
100
AcDbLine
  8
Ofen
 62
256
370
-1
  6
ByLayer
 10
-2654.5370557320147782
 20
2077.0342098973296743
 30
0.0
 11
-2549.5500000000001819
 21
2077.0342098973296743
 31
0.0
  0
LINE
  5
169
100
AcDbEntity
100
AcDbLine
  8
Ofen
 62
256
370
-1
  6
ByLayer
 10
-2799.5500000000001819
 20
2077.0342098973296743
 30
0.0
 11
-2658.6388180675912736
 21
2077.0342098973296743
 31
0.0
  0
LINE
  5
16A
100
AcDbEntity
100
AcDbLine
  8
Ofen
 62
256
370
-1
  6
ByLayer
 10
-2658.6388180675912736
 20
2077.0342098973296743
 30
0.0
 11
-2654.5370557320147782
 21
2077.0342098973296743
 31
0.0
  0
LINE
  5
16B
100
AcDbEntity
100
AcDbLine
  8
Ofen
 62
256
370
-1
  6
ByLayer
 10
-2799.5500000000001819
 20
2209.500009897329619
 30
0.0
 11
-2799.5500000000001819
 21
2077.0342098973296743
 31
0.0
  0
LINE
  5
16C
100
AcDbEntity
100
AcDbLine
  8
Ofen
 62
256
370
-1
  6
ByLayer
 10
-1399.5499999999999545
 20
2209.500009897329619
 30
0.0
 11
-1399.5499999999999545
 21
2077.0342098973296743
 31
0.0
  0
ARC
  5
16D
100
AcDbEntity
  8
Ofen
 62
256
370
-1
  6
ByLayer
100
AcDbCircle
 10
-2365.981143409757351
 20
2143.0
 30
0.0
 40
296.0
100
AcDbArc
 50
33.8784186567891581
 51
167.0169851491294821
  0
ARC
  5
16E
100
AcDbEntity
  8
Ofen
 62
256
370
-1
  6
ByLayer
100
AcDbCircle
 10
-2365.981143409757351
 20
2143.0
 30
0.0
 40
300.0
100
AcDbArc
 50
33.3670129692317516
 51
167.1930548370176268
  0
ARC
  5
16F
100
AcDbEntity
  8
Ofen
 62
256
370
-1
  6
ByLayer
100
AcDbCircle
 10
-2365.981143409757351
 20
2143.0
 30
0.0
 40
300.0
100
AcDbArc
 50
192.7023353789499538
 51
326.6329870307682199
  0
ARC
  5
170
100
AcDbEntity
  8
Ofen
 62
256
370
-1
  6
ByLayer
100
AcDbCircle
 10
-2365.981143409757351
 20
2143.0
 30
0.0
 40
296.0
100
AcDbArc
 50
192.876917433473011
 51
326.1215813432108348
  0
ARC
  5
171
100
AcDbEntity
  8
Ofen
 62
256
370
-1
  6
ByLayer
100
AcDbCircle
 10
-1007.4582089634940303
 20
2143.0
 30
0.0
 40
236.0
100
AcDbArc
 50
35.3373714066761551
 51
163.633548302767565
  0
ARC
  5
172
100
AcDbEntity
  8
Ofen
 62
256
370
-1
  6
ByLayer
100
AcDbCircle
 10
-1007.4582089634940303
 20
2143.0
 30
0.0
 40
240.0
100
AcDbArc
 50
34.6631053733293584
 51
163.9137917594078431
  0
ARC
  5
173
100
AcDbEntity
  8
Ofen
 62
256
370
-1
  6
ByLayer
100
AcDbCircle
 10
-1007.4582089634940303
 20
2143.0
 30
0.0
 40
240.0
100
AcDbArc
 50
195.9535198185629383
 51
325.3368946266706416
  0
ARC
  5
174
100
AcDbEntity
  8
Ofen
 62
256
370
-1
  6
ByLayer
100
AcDbCircle
 10
-1007.4582089634940303
 20
2143.0
 30
0.0
 40
236.0
100
AcDbArc
 50
196.2313237744380103
 51
324.6626285933238591
  0
CIRCLE
  5
175
100
AcDbEntity
100
AcDbCircle
  8
Steine
 62
256
370
-1
  6
ByLayer
 10
-2549.5500000000001819
 20
4143.2671098973296466
 30
0.0
 40
55.0
  0
CIRCLE
  5
176
100
AcDbEntity
100
AcDbCircle
  8
Steine
 62
256
370
-1
  6
ByLayer
 10
-1149.5499999999999545
 20
4143.0
 30
0.0
 40
53.3000000000001393
  0
CIRCLE
  5
177
100
AcDbEntity
100
AcDbCircle
  8
Steine
 62
256
370
-1
  6
ByLayer
 10
-1149.5499999999999545
 20
4143.0
 30
0.0
 40
46.2499999999999432
  0
SPLINE
  5
178
  8
Steine
 62
256
370
-1
  6
ByLayer
100
AcDbEntity
100
AcDbSpline
 70
8
 71
3
 72
17
 73
13
 74
0
 40
0.0
 40
0.0
 40
0.0
 40
0.0
 40
0.1
 40
0.2
 40
0.3
 40
0.4
 40
0.5
 40
0.6000000000000001
 40
0.7000000000000001
 40
0.8
 40
0.9
 40
1.0
 40
1.0
 40
1.0
 40
1.0
 10
-1143.2940855983108577
 20
4198.1505373840300308
 30
0.0
 10
-1190.3007249566564951
 20
4200.6224307304100876
 30
0.0
 10
-1187.7415378564089679
 20
4208.2218650321447058
 30
0.0
 10
-1190.380963496089862
 20
4229.3372701495918591
 30
0.0
 10
-1178.5035481175257246
 20
4251.7723880868798005
 30
0.0
 10
-1171.9049840183233755
 20
4268.9286547448054989
 30
0.0
 10
-1156.0684301802380105
 20
4268.9286547448054989
 30
0.0
 10
-1129.6741737834288415
 20
4276.8469316638484088
 30
0.0
 10
-1121.755896864386159
 20
4270.2483675646453776
 30
0.0
 10
-1120.4361840445458256
 20
4241.2146855281553144
 30
0.0
 10
-1111.1981943056625823
 20
4205.5824393924631295
 30
0.0
 10
-1107.9578869226900224
 20
4190.8773330922576861
 30
0.0
 10
-1143.2940855983108577
 20
4198.1505373840300308
 30
0.0
  0
SPLINE
  5
179
  8
Steine
 62
256
370
-1
  6
ByLayer
100
AcDbEntity
100
AcDbSpline
 70
8
 71
3
 72
16
 73
12
 74
0
 40
0.0
 40
0.0
 40
0.0
 40
0.0
 40
0.1111111111111111
 40
0.2222222222222222
 40
0.3333333333333333
 40
0.4444444444444444
 40
0.5555555555555556
 40
0.6666666666666666
 40
0.7777777777777777
 40
0.8888888888888888
 40
1.0
 40
1.0
 40
1.0
 40
1.0
 10
-1051.3686012079317607
 20
4091.2126209379066495
 30
0.0
 10
-1031.9424284998801795
 20
4103.037247803677019
 30
0.0
 10
-1028.5639636810885804
 20
4114.0172584647498297
 30
0.0
 10
-1026.0301150669949948
 20
4137.6665121962905687
 30
0.0
 10
-1037.0101257280678055
 20
4146.9572904479673525
 30
0.0
 10
-1059.814763254910531
 20
4172.2957765889041184
 30
0.0
 10
-1082.2335879110364658
 20
4169.2909750397730022
 30
0.0
 10
-1091.8245659628496469
 20
4185.6884536444858895
 30
0.0
 10
-1099.5592256820536932
 20
4097.2039464567915275
 30
0.0
 10
-1085.0180654099499407
 20
4068.4310123013519842
 30
0.0
 10
-1064.0378442784001436
 20
4088.6787723238130638
 30
0.0
 10
-1053.0578336173273328
 20
4091.2126209379066495
 30
0.0
  0
SPLINE
  5
17A
  8
Steine
 62
256
370
-1
  6
ByLayer
100
AcDbEntity
100
AcDbSpline
 70
8
 71
3
 72
16
 73
12
 74
0
 40
0.0
 40
0.0
 40
0.0
 40
0.0
 40
0.1111111111111111
 40
0.2222222222222222
 40
0.3333333333333333
 40
0.4444444444444444
 40
0.5555555555555556
 40
0.6666666666666666
 40
0.7777777777777777
 40
0.8888888888888888
 40
1.0
 40
1.0
 40
1.0
 40
1.0
 10
-1223.6799573663111005
 20
4056.8349680426235864
 30
0.0
 10
-1237.1938166414774969
 20
4097.3765458681227756
 30
0.0
 10
-1233.8153518226858978
 20
4115.6202558895975017
 30
0.0
 10
-1225.0313432938278311
 20
4115.6202558895975017
 30
0.0
 10
-1195.7165153112061944
 20
4134.8872086087785647
 30
0.0
 10
-1206.1119403085949671
 20
4104.1334755057059738
 30
0.0
 10
-1172.9456770978690656
 20
4098.9983875116713534
 30
0.0
 10
-1183.1383795408121387
 20
4079.8085288104066422
 30
0.0
 10
-1201.3820895622866374
 20
4072.3759062090648513
 30
0.0
 10
-1202.733475489803368
 20
4056.1592750788654484
 30
0.0
 10
-1211.5174840186614347
 20
4052.7808102600738493
 30
0.0
 10
-1223.0042644025527352
 20
4056.1592750788654484
 30
0.0
  0
SPLINE
  5
17B
  8
Steine
 62
256
370
-1
  6
ByLayer
100
AcDbEntity
100
AcDbSpline
 70
8
 71
3
 72
19
 73
15
 74
0
 40
0.0
 40
0.0
 40
0.0
 40
0.0
 40
0.0833333333333333
 40
0.1666666666666667
 40
0.25
 40
0.3333333333333333
 40
0.4166666666666666
 40
0.5
 40
0.5833333333333333
 40
0.6666666666666666
 40
0.75
 40
0.8333333333333333
 40
0.9166666666666666
 40
1.0
 40
1.0
 40
1.0
 40
1.0
 10
-1208.1390191998698356
 20
4022.3746268909494574
 30
0.0
 10
-1205.4362473448366018
 20
4047.3752665500073817
 30
0.0
 10
-1200.4191884204822145
 20
4067.564730412825611
 30
0.0
 10
-1182.4626865770537734
 20
4077.7814499191317736
 30
0.0
 10
-1174.3543710119540719
 20
4080.4842217741647801
 30
0.0
 10
-1151.2267526063369587
 20
4092.8725370140368796
 30
0.0
 10
-1104.6331624578581341
 20
4081.1777315186250235
 30
0.0
 10
-1107.6032717900325224
 20
4076.7225675203635546
 30
0.0
 10
-1115.5690831649806114
 20
4051.4294243325571188
 30
0.0
 10
-1125.0287846575970434
 20
4023.0503198547080501
 30
0.0
 10
-1138.5426439327632124
 20
4008.8607676157835158
 30
0.0
 10
-1165.5703624830960052
 20
4027.7801706010163798
 30
0.0
 10
-1183.1383795408121387
 20
4015.6176972533662592
 30
0.0
 10
-1201.3820895622866374
 20
4015.6176972533662592
 30
0.0
 10
-1207.4633262361114703
 20
4021.0232409634331816
 30
0.0
  0
SPLINE
  5
17C
  8
Steine
 62
256
370
-1
  6
ByLayer
100
AcDbEntity
100
AcDbSpline
 70
8
 71
3
 72
18
 73
14
 74
0
 40
0.0
 40
0.0
 40
0.0
 40
0.0
 40
0.0909090909090909
 40
0.1818181818181818
 40
0.2727272727272727
 40
0.3636363636363636
 40
0.4545454545454546
 40
0.5454545454545454
 40
0.6363636363636364
 40
0.7272727272727273
 40
0.8181818181818182
 40
0.9090909090909092
 40
1.0
 40
1.0
 40
1.0
 40
1.0
 10
-1239.491172718262078
 20
4118.4581663373983247
 30
0.0
 10
-1241.1128358312821547
 20
4134.6747974675981823
 30
0.0
 10
-1240.5722814602754625
 20
4152.5130917108181166
 30
0.0
 10
-1238.4100639762489209
 20
4177.9191471481299232
 30
0.0
 10
-1229.220639669135835
 20
4191.4330064232963196
 30
0.0
 10
-1205.6168797518153042
 20
4193.5468679193199932
 30
0.0
 10
-1208.6795735708828943
 20
4194.676332649336473
 30
0.0
 10
-1185.5686417596375577
 20
4177.7062848143887095
 30
0.0
 10
-1214.0851172809493619
 20
4165.4863966149769112
 30
0.0
 10
-1200.1716793094954028
 20
4143.0550092723533453
 30
0.0
 10
-1218.4095522490026724
 20
4129.8098081285388616
 30
0.0
 10
-1225.9773134430956816
 20
4121.7014925634384781
 30
0.0
 10
-1236.2478464922221519
 20
4113.0526226273323118
 30
0.0
 10
-1240.5722814602754625
 20
4117.3770575953849402
 30
0.0
  0
CIRCLE
  5
17D
100
AcDbEntity
100
AcDbCircle
  8
Steine
 62
256
370
-1
  6
ByLayer
 10
-2549.5500000000001819
 20
3143.0
 30
0.0
 40
55.0
  0
CIRCLE
  5
17E
100
AcDbEntity
100
AcDbCircle
  8
Ofen
 62
256
370
-1
  6
ByLayer
 10
-1149.5499999999999545
 20
3143.0
 30
0.0
 40
41.2499999999999432
  0
CIRCLE
  5
17F
100
AcDbEntity
100
AcDbCircle
  8
Steine
 62
256
370
-1
  6
ByLayer
 10
-1149.5499999999999545
 20
3143.0
 30
0.0
 40
53.3000000000001393
  0
CIRCLE
  5
180
100
AcDbEntity
100
AcDbCircle
  8
Steine
 62
256
370
-1
  6
ByLayer
 10
-1149.5499999999999545
 20
3143.0
 30
0.0
 40
46.2499999999999432
  0
LINE
  5
181
100
AcDbEntity
100
AcDbLine
  8
Ofen
 62
256
370
-1
  6
ByLayer
 10
-1194.0
 20
3279.5
 30
0.0
 11
-1194.0
 21
3172.4123698467160466
 31
0.0
  0
LINE
  5
182
100
AcDbEntity
100
AcDbLine
  8
Ofen
 62
256
370
50
  6
ByLayer
 10
-1100.3707233684754101
 20
3255.0410694790084563
 30
0.0
 11
-1160.1832102543623932
 21
3195.2285825931217005
 31
0.0
  0
LINE
  5
183
100
AcDbEntity
100
AcDbLine
  8
Ofen
 62
256
370
-1
  6
ByLayer
 10
-1086.6882071525155879
 20
3143.0
 30
0.0
 11
-1037.5089305209914983
 21
3192.1792766315243171
 31
0.0
  0
LINE
  5
184
100
AcDbEntity
100
AcDbLine
  8
Ofen
 62
256
370
50
  6
ByLayer
 10
-1037.5089305209914983
 20
3093.8207233684756829
 30
0.0
 11
-1097.321417406878254
 21
3153.6332102543628935
 31
0.0
  0
LINE
  5
185
100
AcDbEntity
100
AcDbLine
  8
Ofen
 62
256
370
50
  6
ByLayer
 10
-1100.3707233684756375
 20
3030.9589305209915437
 30
0.0
 11
-1160.183210254362848
 21
3090.7714174068782995
 31
0.0
  0
LINE
  5
186
100
AcDbEntity
100
AcDbLine
  8
Ofen
 62
256
370
-1
  6
ByLayer
 10
-1194.0
 20
3113.5876301532839534
 30
0.0
 11
-1194.0
 21
3006.5
 31
0.0
  0
ENDSEC
  0
SECTION
  2
OBJECTS
  0
DICTIONARY
  5
C
100
AcDbDictionary
280
0
281
1
  3
ACAD_GROUP
350
D
  3
ACAD_LAYOUT
350
1A
  3
ACAD_MLINESTYLE
350
17
  3
ACAD_PLOTSETTINGS
350
19
  3
ACAD_PLOTSTYLENAME
350
E
  3
AcDbVariableDictionary
350
187
  0
DICTIONARY
  5
D
100
AcDbDictionary
280
0
281
1
  0
ACDBDICTIONARYWDFLT
  5
E
100
AcDbDictionary
281
1
  3
Normal
350
F
100
AcDbDictionaryWithDefault
340
F
  0
ACDBPLACEHOLDER
  5
F
  0
DICTIONARY
  5
17
100
AcDbDictionary
280
0
281
1
  3
Standard
350
18
  0
MLINESTYLE
  5
18
100
AcDbMlineStyle
  2
STANDARD
 70
0
  3

 62
256
 51
90.0
 52
90.0
 71
2
 49
0.5
 62
256
  6
BYLAYER
 49
-0.5
 62
256
  6
BYLAYER
  0
DICTIONARY
  5
19
100
AcDbDictionary
280
0
281
1
  0
DICTIONARY
  5
1A
100
AcDbDictionary
281
1
  3
Layout1
350
1E
  3
Layout2
350
26
  3
Model
350
22
  0
LAYOUT
  5
1E
100
AcDbPlotSettings
  1

  2
C:\Program Files\AutoCAD 2002\plotters\DWF ePlot (optimized for plotting).pc3
  4

  6

 40
0.0
 41
0.0
 42
0.0
 43
0.0
 44
0.0
 45
0.0
 46
0.0
 47
0.0
 48
0.0
 49
0.0
140
0.0
141
0.0
142
1.0
143
1.0
 70
688
 72
0
 73
0
 74
5
  7

 75
16
147
1.0
148
0.0
149
0.0
100
AcDbLayout
  1
Layout1
 70
1
 71
1
 10
0.0
 20
0.0
 11
420.0
 21
297.0
 12
0.0
 22
0.0
 32
0.0
 14
100000000000000000000.0
 24
100000000000000000000.0
 34
100000000000000000000.0
 15
-100000000000000000000.0
 25
-100000000000000000000.0
 35
-100000000000000000000.0
146
0.0
 13
0.0
 23
0.0
 33
0.0
 16
1.0
 26
0.0
 36
0.0
 17
0.0
 27
1.0
 37
0.0
 76
0
330
1B
  0
LAYOUT
  5
22
100
AcDbPlotSettings
  1

  2
C:\Program Files\AutoCAD 2002\plotters\DWF ePlot (optimized for plotting).pc3
  4

  6

 40
0.0
 41
0.0
 42
0.0
 43
0.0
 44
0.0
 45
0.0
 46
0.0
 47
0.0
 48
0.0
 49
0.0
140
0.0
141
0.0
142
1.0
143
1.0
 70
1712
 72
0
 73
0
 74
0
  7

 75
0
147
1.0
148
0.0
149
0.0
100
AcDbLayout
  1
Model
 70
1
 71
0
 10
0.0
 20
0.0
 11
12.0
 21
9.0
 12
0.0
 22
0.0
 32
0.0
 14
0.0
 24
0.0
 34
0.0
 15
0.0
 25
0.0
 35
0.0
146
0.0
 13
0.0
 23
0.0
 33
0.0
 16
1.0
 26
0.0
 36
0.0
 17
0.0
 27
1.0
 37
0.0
 76
0
330
1F
  0
LAYOUT
  5
26
100
AcDbPlotSettings
  1

  2
C:\Program Files\AutoCAD 2002\plotters\DWF ePlot (optimized for plotting).pc3
  4

  6

 40
0.0
 41
0.0
 42
0.0
 43
0.0
 44
0.0
 45
0.0
 46
0.0
 47
0.0
 48
0.0
 49
0.0
140
0.0
141
0.0
142
1.0
143
1.0
 70
688
 72
0
 73
0
 74
5
  7

 75
16
147
1.0
148
0.0
149
0.0
100
AcDbLayout
  1
Layout2
 70
1
 71
2
 10
0.0
 20
0.0
 11
12.0
 21
9.0
 12
0.0
 22
0.0
 32
0.0
 14
0.0
 24
0.0
 34
0.0
 15
0.0
 25
0.0
 35
0.0
146
0.0
 13
0.0
 23
0.0
 33
0.0
 16
1.0
 26
0.0
 36
0.0
 17
0.0
 27
1.0
 37
0.0
 76
0
330
23
  0
DICTIONARY
  5
187
100
AcDbDictionary
281
1
  3
DIMASSOC
350
189
  3
HIDETEXT
350
188
  0
DICTIONARYVAR
  5
188
100
DictionaryVariables
280
0
  1
2
  0
DICTIONARYVAR
  5
189
100
DictionaryVariables
280
0
  1
1
  0
ENDSEC
  0
EOF
